Oops, an error
Loading. Please wait.

Bat Country Bass Tab

version 3
version 3

Whole song

2,481 views 1 this week
1 commentread comment
1 2 3 4 5
accurate
x 3
add to favorites
launch autoscroll
font size
0
reset
guitar tuner
Autoscroll
slow
fast
+/-
esc
set tempo
stop
Help us to improve Ultimate-Guitar.com Take our survey!
×
Author
Tuning
D A D G B E
Artist:	Avenged Sevenfold
Title:	Bat Country

this is the whole song. and im positive its right


intro
G|----------------------------------------------|
D|----------------------------------------------|
A|-5--5---(5)--5-5------------------------------| x2
D|------------------6----0-----0--5-3-5-6-5-3-0-|

pre verse
G|---------------------------------------------|
D|---------------------------------------------|
A|-5-------------------------------------------| x2
D|--------6--(6)---------5-(5)--------3-(3)----|

1st verse
G|--------------------------------------------------|
D|--------------------------------------------------|
A|-5-5-5-5-5-5-5-5----------------------------------|
D|------------------6-6-6-6-6-6-6-6-0-0-0-0-0-0-0-0-| x2


pre chorus
G|------------------------------------------------------------------|
D|------------------------------------------------------------------|
A|-5-5-5-5-5-5-5-5----------------------------------4-4-4-4-4-4-4-4-|
D|------------------6-6-6-6-6-6-6-6-5-5-5-5-5-5-5-5-----------------|

G|-----------------------------------------------------------------|
D|-----------------------------------------------------------------|
A|-5-5-5-5-5-5-5-5-7-7-7-7-7-7-7-7---------------------------------|
D|---------------------------------3-3-3-3-3-3-3-3-2-2-2-2-2-2-2-2-|

chorus
   .  .
G|----------------------------------------------------------------|
D|------------------------------------------------------------2-3-|
A|-5--5--5-5--------------------3-3--3--3-3-3-3--------3(3)-0-----|
D|-----------0-5-5--3(3)-0-3-00------------------3-3-0------------| x2

2nd verse
G|--------------------------------------------------|
D|--------------------------------------------------|
A|-5-5-5-5-5-5-5-5----------------------------------|
D|------------------6-6-6-6-6-6-6-6-0-0-0-0-0-0-0-0-| x4

pre chorus
G|------------------------------------------------------------------|
D|------------------------------------------------------------------|
A|-5-5-5-5-5-5-5-5----------------------------------4-4-4-4-4-4-4-4-|
D|------------------6-6-6-6-6-6-6-6-5-5-5-5-5-5-5-5-----------------|

G|-----------------------------------------------------------------|
D|-----------------------------------------------------------------|
A|-5-5-5-5-5-5-5-5-7-7-7-7-7-7-7-7---------------------------------|
D|---------------------------------3-3-3-3-3-3-3-3-2-2-2-2-2-2-2-2-|

chorus
   
G|----------------------------------------------------------------|
D|------------------------------------------------------------2-3-|
A|-5--5--5-5--------------------3-3--3--3-3-3-3--------3(3)-0-----|
D|-----------0-5-5--3(3)-0-3-00------------------3-3-0------------| x2

Bridge

G|---------------------------------------------------------|
D|------------2-3-5--5--5-5-5--53--------------------------|
A|-5----55-5----------------------3-333--2-3-7-77(7)-7-5h7-|
D|---------------------------------------------------------|

G|----------------4------------2-----------------------------|
D|-7----------5-7---5------3-5---3------------7-5-3-5-3-2-3-2|
A|-----------------------------------------------------------|
D|-----------------------------------------------------------| x2

pre verse
G|---------------------------------------------|
D|---------------------------------------------|
A|-5-------------------------------------------| x2
D|--------6--(6)--------5-(5)---------3-(3)----|



guitar solo
G|--------------------------------|
D|--------------------------------|
A|-5------------------------------| x2
D|------6--(6)----5---(5)-------0-|

G|----------------------------------------------------------------|
D|----------------------------------------------------------------|
A|-5-5-5-5-5-5-5-5------------------------------------------------|
D|------------------6-6-6-6-6-6-6-6-0-0-0-0-0-0-0-0-0-3-5-6-6-6-6-|x4

pre chorus
G|------------------------------------------------------------------|
D|------------------------------------------------------------------|
A|-5-5-5-5-5-5-5-5----------------------------------4-4-4-4-4-4-4-4-|
D|------------------6-6-6-6-6-6-6-6-5-5-5-5-5-5-5-5-----------------|

G|-----------------------------------------------------------------|
D|-----------------------------------------------------------------|
A|-5-5-5-5-5-5-5-5-7-7-7-7-7-7-7-7---------------------------------|
D|---------------------------------3-3-3-3-3-3-3-3-2-2-2-2-2-2-2-2-|


End on

G|----------------|
D|----------------|
A|----------------|
D|-0--------------|

2:49 – 2:52
no bass


G|-------------------------------------------------------------------|
D|-------------------------------------------------------------------|
A|-------------------------------3333-3--------0000-0--------4444-4--|
D|--0000-0--------5555-5---------------------------------------------|x2

G|-----------------------------------|
D|-----------------------------------|
A|-----------------------------------|
D|-0------7-5-3----2--------8-7-5----|

G|--------------------|
D|--------------------|
A|------------5-4-8-7-|
D|--7---5-3-2---------|

3rd verse

G|--------------------------------------------------|
D|--------------------------------------------------|
A|-5-5-5-5-5-5-5-5----------------------------------|
D|------------------6-6-6-6-6-6-6-6-0-0-0-0-0-0-0-0-|x4


G|-----------------------------------------------------|
D|-----------------------------------------------------|
A|-55555555--------------------------------------------|
D|----------66666666--000--000--000--000--000--000-0-2-|

2nd bridge
G|--------------------------------------------------|
D|--------------------------------------------------|
A|-----------------------3--------3(3)-3------------|
D|-3-----------3----------3--------------------5----|

G|---------------------------------------------------|
D|---------------------------------------------------|
A|---------------------------------------------------|
D|-3-3--(3)--3-3---3--3-3-3-3-0--------0-0-0-0-0-0-2-|

G|--------------------------------------------|
D|--------------------------------------------|
A|----------------3--------------3-----33-(3)-|
D|-3-----------33-----------------------------|

G|---------------|
D|---------------|
A|-1-1-1-(1)-1-1-|x4
D|---------------|

G|----------------------------------------------------------|
D|-------------7------------7-7-7-7-7-7-7-7-7-7-7-7-7-7-7-7-|
A|-0---0-(0)-0---0---0(0)-0---------------------------------|
D|----------------------------------------------------------|

Chorus

G|----------------------------------------------------------------|
D|------------------------------------------------------------2-3-|
A|-5--5--5-5--------------------3-3--3--3-3-3-3--------3(3)-0-----|
D|-----------0-5-5--3(3)-0-3-00------------------3-3-0------------|x2


Bridge
G|---------------------------------------------------------|
D|------------2-3-5--5--5-5-5--53--------------------------|
A|-5----55-5----------------------3-333--2-3-7-77(7)-7-5h7-|
D|---------------------------------------------------------|

G|----------------4------------2-----------------------------|
D|-7----------5-7---5------3-5---3-----------7-5-3-5-3-2-3-2-|
A|-----------------------------------------------------------|
D|-----------------------------------------------------------| x2



end 
G|----------------|
D|--3-------------|
A|----------------|
D|----------------|





Suggest correction
What's this?
You can suggest a correction to this tab. Community and Mods will review your correction and vote to approve or reject it.
comments
We did not receive enough feedback on this tab! Please rate:
print report bad tab
1 2 3 4 5
1 comment total.
0 reply
Megalomanic9345 935 wrote on January 4 2006, 04:34 pm

this tab rules!

guest
You may want to rate the tab now too:
select rating
Please do not post tabs as comments. Select "correction" instead!