Oops, an error
Loading. Please wait.

Bat Country Tab

version 3
93,487 views 27 this week
24 commentsread comments
1 2 3 4 5
accurate
x 34
add to favorites
launch autoscroll
font size
0
reset
how to read this tab
guitar tuner
Autoscroll
slow
fast
+/-
esc
set tempo
stop
Help us to improve Ultimate-Guitar.com Take our survey!
×
Author
Difficulty
Tuning
intermediate
D A D G B E
BAT COUNTRY
As recorded by Avenged Sevenfold
(From the 2005 Album CITY OF EVIL)

Transcribed by Mooney
        

Words by Shadows Music by A7x
Arranged by A7x

Gtr I (D A D G B E) - 'Zacky Guitar 1 '
Gtr II (D A D G B E) - 'Synyster Guitar 2'
Gtr III (D A D G B E) - 'Zacky Neutral'
Gtr IV (D A D G B E) - 'Synyster Neutral'
Gtr V (E A D G B E) - 'Zacky Guitar 2 (Acoustic)'
Gtr VI (D A D G B E) - 'Synyster Guitar 2 (Clean)'


[Intro]
     Q=125
    4/4
     Gtrs I, II
     E Q  S S E Q  E   +E  Q  E S S S S S S E
E||------------------|-------------------------||
B||o-----------------|------------------------o||
G||------------------|-------------------------||
D||--7-7--7-7--------|-------------------------||
A||o-5-5--5-5-6-6--0-|-(0)-0--0---------------o||
D||-----------6-6--0-|-(0)-0--0-5p3h5-6p5p3-0--||


     E Q  S S E Q  E   +E  Q  E S S S S S S E
E||------------------|-------------------------||
B||o-----------------|------------------------o||
G||--7-7--7-7--------|-------------------------||
D||--7-7--7-7-6-6--0-|-(0)-0--0----------------||
A||o-5-5--5-5-6-6--0-|-(0)-0--0---------------o||
D||-----------6-6--0-|-(0)-0--0-5p3h5-6p5p3-0--||


[Pre-Verse]
     Q.   H    E   +Q.   H    +E
E||--------------|-----------------||
B||o-------------|----------------o||
G||--7-----------|-----------------||
D||--7----6----5-|-(5)---3----(3)--||
A||o-5----6----5-|-(5)---3----(3)-o||
D||-------6----5-|-(5)---3----(3)--||


[Verse]
                                      PM----------------------------|
    S S S S S S S S S S S S S S S S   S S S S S S S S S S S S S S S S
||----------------------------------|-----------------------------------||
||o---------------------------------|----------------------------------o||
||----------------------------------|-----------------------------------||
||----------------------------------|-----------------------------------||
||o-5-5-5-5-5-5-5-5-----------------|-0-0-0-0-0-0-0-0-0-0-0-0-0-0-0-0--o||
||------------------6-6-6-6-6-6-6-6-|-0-0-0-0-0-0-0-0-0-0-0-0-0-0-0-0---||


[Pre-Chorus]
   $
   S S S S S S S S S S S S S S S S   S S S S S S S S S S S S S S S S
E|---------------------------------|---------------------------------|
B|---------------------------------|---------------------------------|
G|---------------------------------|---------------------------------|
D|---------------------------------|---------------------------------|
A|-5-5-5-5-5-5-5-5-----------------|-----------------4-4-4-4-4-4-4-4-|
D|-----------------6-6-6-6-6-6-6-6-|-5-5-5-5-5-5-5-5-----------------|


   S S S S S S S S S S S S S S S S   S S S S S S S S S S S S S S S S
E|---------------------------------|---------------------------------|
B|---------------------------------|---------------------------------|
G|---------------------------------|---------------------------------|
D|---------------------------------|---------------------------------|
A|-5-5-5-5-5-5-5-5-7-7-7-7-7-7-7-7-|---------------------------------|
D|---------------------------------|-3-3-3-3-3-3-3-3-2-2-2-2-2-2-2-2-|


[Chorus]
                                                                 To Coda
     PM-|      PM|       PM                                 PM
     q  q  E E e e   E E e Q  E E e   E E E E E E E E   E E e E E a E E E
E||----------------|----------------|-----------------|--------------------||
B||o---------------|----------------|-----------------|-------------------o||
G||--7--7--7-7-----|----------------|-5-5-5-5-5-5-5-5-|-------5-5----------||
D||--7--7--7-7-----|-5-5---3--3-3---|-5-5-5-5-5-5-5-5-|-3-3---5-5----------||
A||o-5--5--5-5-0-0-|-5-5-0-3--3-3-0-|-3-3-3-3-3-3-3-3-|-3-3-0-3-3-0S5-7-8-o||
D||------------0-0-|-5-5-0-3--3-3-0-|-----------------|-3-3-0--------------||


[Verse]
                                                          D.S. al Coda
                                      PM----------------------------|
    S S S S S S S S S S S S S S S S   S S S S S S S S S S S S S S S S   4x
||----------------------------------|-----------------------------------||
||o---------------------------------|----------------------------------o||
||----------------------------------|-----------------------------------||
||----------------------------------|-----------------------------------||
||o-5-5-5-5-5-5-5-5-----------------|-0-0-0-0-0-0-0-0-0-0-0-0-0-0-0-0--o||
||------------------6-6-6-6-6-6-6-6-|-0-0-0-0-0-0-0-0-0-0-0-0-0-0-0-0---||


[Interlude]
     &
     Gtr VI
     E E E Q  E Q     E E E Q  E E E   E E E E E E Q     E E E Q  E Q
E||--1-----1--------|-------3--------|---------0-------|----------0------|
B||o---3------3-----|-----0----0-----|-------3---3-----|-------3----3----|
G||------2------2---|-0-2------------|-----0-------0---|-----1-----------|
D||-----------------|----------------|---2-------------|---0-------------|
A||o----------------|------------0-2-|-3---------------|-2---------------|
D||-----------------|----------------|-----------------|-----------------|
 |
 |   Gtr V
 |   Q   E Q  E E E   Q   E Q  E E E   Q   E Q   E E E   Q   E Q  E E E
E||--1---1-1--1-1-0-|-3---3-3--3-3-0-|-0---0-0---0-0-0-|-0---0-0--0-0-0--|
B||o-3---3-3--3-3-0-|-3---3-3--3-3-0-|-1---1-1---1-1-0-|-0---0-0--0-0-0--|
G||--2---2-2--2-2-0-|-0---0-0--0-0-0-|-0---0-0---0-0-0-|-1---1-1--1-1-0--|
D||--0---0-0--0-0-0-|-0---0-0--0-0-0-|-2---2-2---2-2-0-|-0---0-0--0-0-0--|
A||o----------------|-2---2-2--2-2---|-3---3-3---3-3---|-2---2-2--2-2----|
E||-----------------|----------------|-----------------|-----------------|


   E E E Q  E Q     E E E Q  E Q     E E E Q  E E E    W
E|----------------|----------------|----------------|-^1--------------||
B|-------0--------|-------0--------|-------1--------|-^1-------------o||
G|-----5----5-----|-----5----5-----|-----0----0-----|-^0--------------||
D|---2--------2---|---2--------2---|---3--------3---|-^3--------------||
A|-0--------------|----------------|-3------------3-|----------------o||
D|----------------|-5--------------|----------------|-----------------||
 |
 | Q   E Q  E E E   Q   E Q  E E E   Q   E Q  E E E    Q  E Q  E E E
E|-0---0-0--0-0-0-|-3---3-3--3-3-0-|-1---1-1--1-1-1-|--1--1-1--1-1-0--||
B|-1---1-1--1-1-0-|-3---3-3--3-3-0-|-1---1-1--1-1-1-|--1--1-1--1-1-0-o||
G|-2---2-2--2-2-0-|-0---0-0--0-0-0-|-0---0-0--0-0-0-|--0--0-0--0-0-0--||
D|-2---2-2--2-2-0-|-0---0-0--0-0-0-|-3---3-3--3-3-3-|--3--3-3--3-3-0--||
A|-0---0-0--0-0---|-2---2-2--2-2---|-3---3-3--3-3-3-|--3--3-3--3-3---o||
D|----------------|----------------|----------------|-----------------||


[Breakdown]
     Gtrs I, II
     Q.   H    E   +Q.   H    +E   4x
E||--------------|-----------------||
B||o-------------|----------------o||
G||--7-----------|-----------------||
D||--7----6----5-|-(5)---3----(3)--||
A||o-5----6----5-|-(5)---3----(3)-o||
D||-------6----5-|-(5)---3----(3)--||


[Pre-Guitar Solo]
   Gtr III
    Q.         H            E        +Q.    E        H
E|--------------------------------|---------------------------------------|
B|--------------------------------|---------------------------------------|
G|--7-----------------------------|---------------------------------------|
D|--7----------6------------5-----|--(5)----------------------------------|
A|--5----------6------------5-----|--(5)----------------------------------|
D|-------------6------------5-----|--(5)----------------------------------|
 |
 | Gtr II
 |  ~~~~~~~~~~~~~~~~        ~~~~~~~~~~~~~
 |                                          |--3--|  |--3--|
 |  E.    +E.  Q      +Q    E        +Q.    S  S  S  S  S  S  E      +Q
E|--------------------------------|---------------------------------------|
B|-15----(15)--9------(9)---8-----|--(8)---------------10-13-15b17==(15)--|
G|-17b19-(17)-11b13--(11)--10b12--|-(10)------10h12h13--------------------|
D|--------------------------------|--------12-----------------------------|
A|--------------------------------|---------------------------------------|
D|--------------------------------|---------------------------------------|
 |
 | Gtr I
 |  W                                 W
E|--------------------------------|---------------------------------------|
B|--------------------------------|---------------------------------------|
G|--------------------------------|---------------------------------------|
D|--------------------------------|---------------------------------------|
A|--------------------------------|---------------------------------------|
D|--------------------------------|---------------------------------------|


     Q.         H                E       +Q.   E   H
E|------------------------------------|---------------------|
B|------------------------------------|---------------------|
G|---7--------------------------------|---------------------|
D|---7----------6----------------5----|--(5)----------------|
A|---5----------6----------------5----|--(5)----------------|
D|--------------6----------------5----|--(5)----------------|
 |
 |                                             \7_______|
 |  +H                +H                 +Q.   H       +E
E|------------------------------------|---------------------|
B|-(15)--------------(15)r============|=(15)----------------|
G|------------------------------------|---------------------|
D|------------------------------------|---------------------|
A|------------------------------------|---------------------|
D|------------------------------------|--------0-------(0)--|
 |
 |   ~~~~~~~~~~~~~~~~            ~~~~~~~~~~~~
 |   E.    +E.  Q          +Q    E       +Q.   H        E
E|------------------------------------|---------------------|
B|--15----(15)--9----------(9)---8----|--(8)----------------|
G|--17b19-(17)-11b13------(11)--10b12-|-(10)----------------|
D|------------------------------------|---------------------|
A|------------------------------------|---------------------|
D|------------------------------------|---------------------|


[Guitar Solo]
                                                        PM------------------------------------------|
   S   S  S  S  S    S  S  S  S    S S    S  S  S S S   S   S  S  S  S    S  S  S  S    S  S    E S   E
E|----------------------------------------------------|--------------------------------------------------|
B|----------------------------------------------------|--------------------------------------------------|
G|----------------------------------------------------|--------------------------------------------------|
D|----------------------------------------------------|--------------------------------------------------|
A|-5---5--5--5--5----5--5--5--------------------------|-0---0--0--0--0----0--0--0--3----3--5----5-0---0--|
D|----------------------------6----6-6----6--6--6-6-6-|-0---0--0--0--0----0--0--0--3----3--5----5-0---0--|
 |
 |                                   ~~~~~~~~~~~~~~~                                       ~~~~~~~~~~~~~~
 | E     +E    +E      +E    +E      E      +E    E     E     +E    +E      +E    +E       Q         +E
E|----------------------------------------------------|--------------------------------------------------|
B|----------------------------------------------------|--------------------------------------------------|
G|-5b7r==(5)---(5)b7r==(5)---(5)b7---9b10r==(9)---5---|-5b7r==(5)---(5)b7r==(5)---(5)b7---13b14r====(13)-|
D|----------------------------------------------------|--------------------------------------------------|
A|----------------------------------------------------|--------------------------------------------------|
D|----------------------------------------------------|--------------------------------------------------|


                                                         PM--------------------------------------|
  S   S  S  S  S    S  S  S  S    S  S    S S S   S  S   S     S S S  S   S  S S S  S S  E     S E
E|------------------------------------------------------|--------------------------------------------------|
B|------------------------------------------------------|--------------------------------------------------|
G|------------------------------------------------------|--------------------------------------------------|
D|------------------------------------------------------|--------------------------------------------------|
A|-5---5--5--5--5----5--5--5----------------------------|-0-----0-0-0--0---0--0-0-3--3-5--5-----0-0--------|
D|----------------------------6----6--6----6-6-6---6--6-|-0-----0-0-0--0---0--0-0-3--3-5--5-----0-0--------|
 |
 |                                    ~~~~~~~~~~~~~~~~~~~~~~~~~~~~~~~~~~~~~               ~~~~~~~~~~~~~~~~
 | E     +E    +E      +E    +E       Q           +E      Q           +E      S S S  S S  Q          +S
E|------------------------------------------------------|-8b10========(8)r---10p9p8------10b12======(10)r--|
B|------------------------------------------------------|---------------------------10p9-------------------|
G|-5b7r==(5)---(5)b7r==(5)---(5)b7---16b17r======(16)---|--------------------------------------------------|
D|------------------------------------------------------|--------------------------------------------------|
A|------------------------------------------------------|--------------------------------------------------|
D|------------------------------------------------------|--------------------------------------------------|


                                               PM-----------------------------------------|
   S S S S   S  S S  S  S    S S S S S S S     S S    S    S  S S    S    S  S    S S E S E
|------------------------------------------|------------------------------------------------|
|------------------------------------------|------------------------------------------------|
|------------------------------------------|------------------------------------------------|
|------------------------------------------|------------------------------------------------|
|--5-5-5-5---5--5-5--5---------------------|---0-0----0----0--0-0----0----0--3----3-5-5-0-0-|
|-----------------------6----6-6-6-6-6-6-6-|---0-0----0----0--0-0----0----0--3----3-5-5-0-0-|
|
|  ~~~~~~~~~~~~~        ~~~~~                                                ~~~~~
|                                              |----3----|    |----3----|
|  Q        +E    S  S  H                      E    E    E    E    E    E    H
|-10-------(10)---8-10-13b15---------------|-/18---17---16---15---13---15---15b17-----------|
|------------------------------------------|------------------------------------------------|
|------------------------------------------|------------------------------------------------|
|------------------------------------------|------------------------------------------------|
|------------------------------------------|------------------------------------------------|
|------------------------------------------|------------------------------------------------|


                                                  PM-----------------------------------------|
    S S  S S  S S  S  S  S  S  S  S  S  S  S S    S    S   S  S   S  S S S  S  S  S  E     S E
|----------------------------------------------|--------------------------------------------------------|
|----------------------------------------------|--------------------------------------------------------|
|----------------------------------------------|--------------------------------------------------------|
|----------------------------------------------|--------------------------------------------------------|
|---5-5--5-5--5-5--5--5------------------------|--0----0---0--0---0--0-0-0--3--3--5--5-----0-0----------|
|------------------------6--6--6--6--6--6--6-6-|--0----0---0--0---0--0-0-0--3--3--5--5-----0-0----------|
 |
 |                                                          ~~~~~~~~~~                ~~~~~~~~~~~~~~~~
 |   E    E    E    S  S  S  S  S  S  S  S  E      E       +E     +Q         S  S  S  Q          +S
E|-/18---17---15---------------------------15---|-15b17r==(15)---(15)----------------15b16======(15)r----|
B|-----------------------------13-13-13-13------|---------------------------------13---------------------|
G|-----------------13-13-13-13------------------|------------------------------13------------------------|
D|----------------------------------------------|---------------------------12---------------------------|
A|----------------------------------------------|--------------------------------------------------------|
D|----------------------------------------------|--------------------------------------------------------|


    S  S  S  S  S  S  S  S  S  S  S  S  S  S  S  S
E|-------------------------------------------------|
B|-------------------------------------------------|
G|-------------------------------------------------|
D|-------------------------------------------------|
A|--5--5--5--5--5--5--5--5-------------------------|
D|--------------------------6--6--6--6--6--6--6--6-|
 |
 |  S  S  S  S  S  S  S  S  S  S  S  S  S  S  S  S
E|-------------------------------------------------|
B|-15----------18----------17----------20----------|
G|-------------------------------------------------|
D|----12-12-12----15-15-15----14-14-14----17-17-17-|
A|-------------------------------------------------|
D|-------------------------------------------------|


    S  S  S  S  S  S  S  S  S S S S  S S S S
E|-------------------------------------------|
B|-------------------------------------------|
G|-------------------------------------------|
D|-------------------------------------------|
A|--------------------------4-4-4-4--4-4-4-4-|
D|--5--5--5--5--5--5--5--5-------------------|
 |
 |                          TP       ~~
 |  S  S  S  S  S  S  S  S  Q        Q
E|-17-18-17-16-17-18-17-16-17----------------|
B|----------------------------------17-------|
G|-------------------------------------------|
D|-------------------------------------------|
A|-------------------------------------------|
D|-------------------------------------------|


    S    S     S    S    S    S     S    S    S    S     S    S     S    S     S    S
E|---------------------------------------------------------------------------------------|
B|---------------------------------------------------------------------------------------|
G|---------------------------------------------------------------------------------------|
D|---------------------------------------------------------------------------------------|
A|--5----5-----5----5----5----5-----5----5----7----7-----7----7-----7----7-----7----7----|
D|---------------------------------------------------------------------------------------|
|
|  |--------3--------|  |--------3--------|  |--------3---------|  |--------3---------|
|  S  S    S  S  S   S  S  S    S  S  S   S  S  S    S  S  S    S  S  S    S  S  S    S
|-10h12h==13-12p10p==9-10h12h==13-12p10p==9-12h14h==15-14p12p==10-12h14h==15-14p12p==10-|
|---------------------------------------------------------------------------------------|
|---------------------------------------------------------------------------------------|
|---------------------------------------------------------------------------------------|
|---------------------------------------------------------------------------------------|
|---------------------------------------------------------------------------------------|


    S    S     S    S     S    S     S    S     S    S     S    S     S    S     S    S
E|-----------------------------------------------------------------------------------------|
B|-----------------------------------------------------------------------------------------|
G|-----------------------------------------------------------------------------------------|
D|-----------------------------------------------------------------------------------------|
A|-----------------------------------------------------------------------------------------|
D|--3----3-----3----3-----3----3-----3----3-----2----2-----2----2-----2----2-----2----2----|
|
|  |--------3---------|  |--------3---------|  |--------3---------|  |--------3---------|
|  S  S    S  S  S    S  S  S    S  S  S    S  S  S    S  S  S    S  S  S    S  S  S    S
|-15h17h==18-17p15p==14-15h17h==18-17p15p==14-17h20p==19-17h20p==19-22p20p==19-22p20p==19-|
|-----------------------------------------------------------------------------------------|
|-----------------------------------------------------------------------------------------|
|-----------------------------------------------------------------------------------------|
|-----------------------------------------------------------------------------------------|
|-----------------------------------------------------------------------------------------|


[Dual Solo]
   Gtr I
    S     S  S  S  S  S  S  S  S  S  S  S  S  S  S  S
E|-13----10----------------10-13-10----------------10-|
B|----------10----------10----------10----------10----|
G|-------------10----10----------------10----10-------|
D|----------------12----------------------12----------|
A|----------------------------------------------------|
D|----------------------------------------------------|
|
 | Gtr II
 |  S     S  S  S  S  S  S  S  S  S  S  S  S  S  S  S
E|-17----13----------------13-17-13----------------13-|
B|----------15----------15----------15----------15----|
G|-------------14----14----------------14----14-------|
D|----------------15----------------------15----------|
A|----------------------------------------------------|
D|----------------------------------------------------|
|
 | Gtr IV
 |  ~~~~~
 |  H                          H
E|-20b22----------------------------------------------|
B|----------------------------------------------------|
G|----------------------------------------------------|
D|----------------------------------------------------|
A|----------------------------------------------------|
D|----------------------------------------------------|


    S  S  S  S  S  S  S  S  S  S  S  S  S  S  S  S
E|-12--9-----------------9-12--9-----------------9-|
B|-------11----------11----------11----------11----|
G|-----------9-----9-----------------9-----9-------|
D|-------------11----------------------11----------|
A|-------------------------------------------------|
D|-------------------------------------------------|
 |
 |  S  S  S  S  S  S  S  S  S  S  S  S  S  S  S  S
E|-15----------------------15----------------------|
B|----17----------------17----17----------------17-|
G|-------15----------15----------15----------15----|
D|----------17-14-17----------------17-14-17-------|
A|-------------------------------------------------|
D|-------------------------------------------------|
 |
 |  W
E|-------------------------------------------------|
B|-------------------------------------------------|
G|-------------------------------------------------|
D|-------------------------------------------------|
A|-------------------------------------------------|
D|-------------------------------------------------|


     ~~~~                           ~~
     Q.           E  E  E  E   E    H           E  E  E   E
E|---------------------12-13--17-|-15----------13-15-13-----|
B|-/15----------/13-15-----------|-----------------------15-|
G|-------------------------------|--------------------------|
D|-------------------------------|--------------------------|
A|-------------------------------|--------------------------|
D|-------------------------------|--------------------------|
 |
 |   ~~~~                           ~~
 |   Q.           E  E  E  E   E    H           E  E  E   E
E|-/13----------/12-13-15-17--20-|-18----------17-18-17-----|
B|-------------------------------|-----------------------18-|
G|-------------------------------|--------------------------|
D|-------------------------------|--------------------------|
A|-------------------------------|--------------------------|
D|-------------------------------|--------------------------|
|
 | Gtr III
 |   S  S S S H           +Q        S S S S H        +Q
E|-------------------------------|--------------------------|
B|-------------------------------|--------------------------|
G|-------------------------------|--------------------------|
D|------------0-----------(0)----|----------5--------(5)----|
A|------------0-----------(0)----|----------5--------(5)----|
D|---0--0-0-0-0-----------(0)----|--5-5-5-5-5--------(5)----|


    ~~                              ~~                       ~~
    H               E  E   E   E    Q        Q   Q           Q
E|-12-------------------------15-|-13-----------------------------|
B|-----------------13-15--13-----|----------14--15----------17----|
G|-------------------------------|--------------------------------|
D|-------------------------------|--------------------------------|
A|-------------------------------|--------------------------------|
D|-------------------------------|--------------------------------|
 |
 |  ~~                              ~~                       ~~
 |  H               E  E   E   E    Q        Q   Q           Q
E|-15-------------------------18-|-17-----------------------15----|
B|-----------------17-18--17-----|----------17--18----------------|
G|-------------------------------|--------------------------------|
D|-------------------------------|--------------------------------|
A|-------------------------------|--------------------------------|
D|-------------------------------|--------------------------------|
|
 |  S  S  S  S  H         +Q        S S S S  Q   S  S  S  S  Q
E|-------------------------------|--------------------------------|
B|-------------------------------|--------------------------------|
G|-------------------------------|--------------------------------|
D|-------------10--------(10)----|-----------7--------------11----|
A|-------------10--------(10)----|-----------7--------------11----|
D|-10-10-10-10-10--------(10)----|--7-7-7-7--7--11-11-11-11-11----|


     ~~~                            ~~
     Q         E  E  E  E  E   E    H           E  E  E   E
E|-/13-----------------12-13--17-|-15----------13-15-13-----|
B|-----------/15-13-15-----------|-----------------------15-|
G|-------------------------------|--------------------------|
D|-------------------------------|--------------------------|
A|-------------------------------|--------------------------|
D|-------------------------------|--------------------------|
 |
 |   ~~~                            ~~
 |   Q         E  E  E  E  E   E    H           E  E  E   E
E|-/17-------/13-12-13-15-17--20-|-18----------17-18-17-----|
B|-------------------------------|-----------------------18-|
G|-------------------------------|--------------------------|
D|-------------------------------|--------------------------|
A|-------------------------------|--------------------------|
D|-------------------------------|--------------------------|
 |
 |   S S S S   H          +Q        S S S S H        +Q
E|-------------------------------|--------------------------|
B|-------------------------------|--------------------------|
G|-------------------------------|--------------------------|
D|-------------0----------(0)----|----------5--------(5)----|
A|-------------0----------(0)----|----------5--------(5)----|
D|---0-0-0-0---0----------(0)----|--5-5-5-5-5--------(5)----|


    ~~                              ~~                       ~~
    H               E  E   E   E    Q        Q   Q           Q
E|-12-------------------------15-|-13-----------------------------|
B|-----------------13-15--13-----|----------14--15----------17----|
G|-------------------------------|--------------------------------|
D|-------------------------------|--------------------------------|
A|-------------------------------|--------------------------------|
D|-------------------------------|--------------------------------|
 |
 |  ~~                              ~~                       ~~
 |  H               E  E   E   E    Q        Q   Q           Q
E|-15-------------------------18-|-17-----------------------15----|
B|-----------------17-18--17-----|----------17--18----------------|
G|-------------------------------|--------------------------------|
D|-------------------------------|--------------------------------|
A|-------------------------------|--------------------------------|
D|-------------------------------|--------------------------------|
 |
 |  S  S  S  S  H         +Q        S S S S  Q   S  S  S  S  Q
E|-------------------------------|--------------------------------|
B|-------------------------------|--------------------------------|
G|-------------------------------|--------------------------------|
D|-------------10--------(10)----|-----------7--------------11----|
A|-------------10--------(10)----|-----------7--------------11----|
D|-10-10-10-10-10--------(10)----|--7-7-7-7--7--11-11-11-11-11----|


        ~~~               ~~~
    Q   H.            Q   H.            S  S  S  S  S  S  S  S  S  S  S  S  S  S  S  S
E|-13--------------|-15--12----------|-13-15-13-12-13-15-13-12-13-15-13-12-13-15-13-12-|
B|-----15----------|-----------------|-------------------------------------------------|
G|-----------------|-----------------|-------------------------------------------------|
D|-----------------|-----------------|-------------------------------------------------|
A|-----------------|-----------------|-------------------------------------------------|
D|-----------------|-----------------|-------------------------------------------------|
 |
 |      ~~~               ~~~
 |  Q   H.            Q   H.            S  S  S  S  S  S  S  S  S  S  S  S  S  S  S  S
E|-17--13----------|-18--15----------|-17-18-17-16-17-18-17-16-17-18-17-16-17-18-17-16-|
B|-----------------|-----------------|-------------------------------------------------|
G|-----------------|-----------------|-------------------------------------------------|
D|-----------------|-----------------|-------------------------------------------------|
A|-----------------|-----------------|-------------------------------------------------|
D|-----------------|-----------------|-------------------------------------------------|
 |
 |          PM|       ~~      PM|
 |  H       E E Q     H       E E Q     Q           Q           Q           Q
E|-----------------|-----------------|-------------------------------------------------|
B|-----------------|-----------------|-------------------------------------------------|
G|-----------------|-----------------|-------------------------------------------------|
D|-----------------|-----------------|-------------------------------------------------|
A|--0-------3-1-0--|--2-------5-3-1--|--3-----------1-----------0----------------------|
D|--0-------7-5-3--|--2-------8-7-5--|--7-----------5-----------3-----------5----------|
                                       Q           Q           Q           Q


                                                 ~~
    S  S  S  S  S  S  S  S  S  S  S  S  S  S  S  S
E|-13-15-13-12-13-12-------18-17-16----13-12----------|
B|-------------------15-14----------17-------15-13----|
G|----------------------------------------------------|
D|----------------------------------------------------|
A|----------------------------------------------------|
D|----------------------------------------------------|
 |
 |                                               ~~
 |  S  S  S  S  S  S  S  S  S  S  S  S  S  S  S  S
E|-17-18-17-16-17-15-------21-20-19----17-------------|
B|-------------------18-17----------20----20-18-17----|
G|----------------------------------------------------|
D|----------------------------------------------------|
A|----------------------------------------------------|
D|----------------------------------------------------|
|
 |  Q           Q           Q           Q
E|----------------------------------------------------|
B|----------------------------------------------------|
G|-------------------------/2-----------0-------------|
D|--3-----------2----------/3-----------2-------------|
A|--5-----------3-------------------------------------|
D|----------------------------------------------------|


[Verse]
    ~~
    H               H                 H                E       E       E       E
E|----------------------------------|-------------------------------------------------|
B|-15-------------------------------|-----------------10------11------12------13------|
G|----------------------------------|-----------------12b14---13b15---14b16---15b17---|
D|----------------------------------|-------------------------------------------------|
A|----------------------------------|-------------------------------------------------|
D|----------------------------------|-------------------------------------------------|
 |
 |  ~~
 |  H               H                 W
E|----------------------------------|-------------------------------------------------|
B|-18-------------------------------|-------------------------------------------------|
G|----------------------------------|-------------------------------------------------|
D|----------------------------------|-------------------------------------------------|
A|----------------------------------|-------------------------------------------------|
D|----------------------------------|-------------------------------------------------|
|
|                                    PM--------------------------------------------|
|  S S S S S S S S S S S S S S S S   S S S S S S S S  S    S  S    S  S    S  S    S
|----------------------------------|-------------------------------------------------|
|----------------------------------|-------------------------------------------------|
|----------------------------------|-------------------------------------------------|
|----------------------------------|-------------------------------------------------|
|--5-5-5-5-5-5-5-5-----------------|-0-0-0-0-0-0-0-0--0----0--0----0--0----0--0----0-|
|------------------6-6-6-6-6-6-6-6-|-0-0-0-0-0-0-0-0--0----0--0----0--0----0--0----0-|


    H                   H                    H                  S  S  S  S S  S  S  S
E|-----------------------------------------|---------------------------------------------|
B|-15-------------------9------------------|-3-----------------------------7--8--9-10----|
G|-17b19---------------11b13---------------|-5b7----------------7--8--9-10---------------|
D|-----------------------------------------|---------------------------------------------|
A|-----------------------------------------|---------------------------------------------|
D|-----------------------------------------|---------------------------------------------|
 |
 |  W                                        H                  S  S  S  S S  S  S  S
E|-----------------------------------------|-------------------------------9-10-11-12----|
B|-----------------------------------------|-------------------10-11-12-13---------------|
G|-----------------------------------------|---------------------------------------------|
D|-----------------------------------------|---------------------------------------------|
A|-----------------------------------------|---------------------------------------------|
D|-----------------------------------------|---------------------------------------------|
|
|                                           PM------------------------------------|
|  S    S S S S S S S  S    S S S S S S S   S   S S S S S S S  S  S  S  S S  S  S  S
|-----------------------------------------|---------------------------------------------|
|-----------------------------------------|---------------------------------------------|
|-----------------------------------------|---------------------------------------------|
|-----------------------------------------|---------------------------------------------|
|--5----5-5-5-5-5-5-5---------------------|-0---0-0-0-0-0-0-0--0--0--0--0-0--0--0--0----|
|----------------------6----6-6-6-6-6-6-6-|-0---0-0-0-0-0-0-0--0--0--0--0-0--0--0--0----|


    Q           +Q         Q           +Q          Q          +Q        Q         +Q
E|--9b10--------(9)------------------------------|------------------------------------------|
B|-------------------------8b9---------(8)-------|------------------------------------------|
G|-----------------------------------------------|-6b7--------(6)---------------------------|
D|-----------------------------------------------|----------------------6b7-------(6)-------|
A|-----------------------------------------------|------------------------------------------|
D|-----------------------------------------------|------------------------------------------|
 |
 |  Q           +Q         Q           +Q          Q          +Q        Q         +Q
E|-16b17-------(16)-------12b13-------(12)-------|-9b10-------(9)---------------------------|
B|-----------------------------------------------|----------------------8b9-------(8)-------|
G|-----------------------------------------------|------------------------------------------|
D|-----------------------------------------------|------------------------------------------|
A|-----------------------------------------------|------------------------------------------|
D|-----------------------------------------------|------------------------------------------|
|
|                                                 PM-------------------------------------|
|  S    S S S   S  S S S  S    S S S   S  S S S   S    S S S  S  S S S S   S S S  S  S S S
|-----------------------------------------------|------------------------------------------|
|-----------------------------------------------|------------------------------------------|
|-----------------------------------------------|------------------------------------------|
|-----------------------------------------------|------------------------------------------|
|--5----5-5-5---5--5-5-5------------------------|-0----0-0-0--0--0-0-0-0---0-0-0--0--0-0-0-|
|-------------------------6----6-6-6---6--6-6-6-|-0----0-0-0--0--0-0-0-0---0-0-0--0--0-0-0-|


    H                   H                    H                  H
E|-----------------------------------------|-----------------------------------|
B|-15-------------------9------------------|-3-----------------15--------------|
G|-17b19---------------11b13---------------|-5b7---------------17b19-----------|
D|-----------------------------------------|-----------------------------------|
A|-----------------------------------------|-----------------------------------|
D|-----------------------------------------|-----------------------------------|
 |
 |  H                   H                    H                  H
E|-----------------------------------------|-----------------------------------|
B|-15-------------------9------------------|-3-----------------15--------------|
G|-17b19---------------11b13---------------|-5b7---------------17b19-----------|
D|-----------------------------------------|-----------------------------------|
A|-----------------------------------------|-----------------------------------|
D|-----------------------------------------|-----------------------------------|
|
|                                           PM--------------------------|
|  S    S S S S S S S  S    S S S S S S S   S   S S S S S S S  S    S S S E E
|-----------------------------------------|-----------------------------------|
|-----------------------------------------|-----------------------------------|
|-----------------------------------------|-----------------------------------|
|-----------------------------------------|-------------------------------0-2-|
|--5----5-5-5-5-5-5-5---------------------|-0---0-0-0-0-0-0-0--0----0-0-0-0-2-|
|----------------------6----6-6-6-6-6-6-6-|-0---0-0-0-0-0-0-0--0----0-0-0-0-2-|


[Bridge]
     Gtrs I, II
     E E E E E E E E   E E E E E E E E   E E E E E E E E   H    S S S S E E
E||------------------|-----------------|-----------------|--------------------||
B||o-----------------|-----------------|-----------------|-------------------o||
G||------------------|-5-5-5-5-5-5-5-5-|-----------------|--------------------||
D||--3-3-3-3-3-3-3-3-|-5-5-5-5-5-5-5-5-|-5-5-5-5-5-5-5-5-|-0------------0-2---||
A||o-3-3-3-3-3-3-3-3-|-3-3-3-3-3-3-3-3-|-5-5-5-5-5-5-5-5-|-0------------0-2--o||
D||--3-3-3-3-3-3-3-3-|-----------------|-5-5-5-5-5-5-5-5-|-0----0-0-0-0-0-2---||


[Chorus]
     PM-|      PM|       PM                                 PM
     q  q  E E e e   E E e Q  E E e   E E E E E E E E   E E e E E a E E E
E||----------------|----------------|-----------------|--------------------||
B||o---------------|----------------|-----------------|-------------------o||
G||--7--7--7-7-----|----------------|-5-5-5-5-5-5-5-5-|-------5-5----------||
D||--7--7--7-7-----|-5-5---3--3-3---|-5-5-5-5-5-5-5-5-|-3-3---5-5----------||
A||o-5--5--5-5-0-0-|-5-5-0-3--3-3-0-|-3-3-3-3-3-3-3-3-|-3-3-0-3-3-0S5-7-8-o||
D||------------0-0-|-5-5-0-3--3-3-0-|-----------------|-3-3-0--------------||


[Interlude]
     Gtr VI
     E E E Q  E Q     E E E Q  E E E   E E E E E E Q     E E E Q  E Q
E||--1-----1--------|-------3--------|---------0-------|----------0------|
B||o---3------3-----|-----0----0-----|-------3---3-----|-------3----3----|
G||------2------2---|-0-2------------|-----0-------0---|-----1-----------|
D||-----------------|----------------|---2-------------|---0-------------|
A||o----------------|------------0-2-|-3---------------|-2---------------|
D||-----------------|----------------|-----------------|-----------------|
 |
 |   Gtr V
 |   Q   E Q  E E E   Q   E Q  E E E   Q   E Q   E E E   Q   E Q  E E E
E||--1---1-1--1-1-0-|-3---3-3--3-3-0-|-0---0-0---0-0-0-|-0---0-0--0-0-0--|
B||o-3---3-3--3-3-0-|-3---3-3--3-3-0-|-1---1-1---1-1-0-|-0---0-0--0-0-0--|
G||--2---2-2--2-2-0-|-0---0-0--0-0-0-|-0---0-0---0-0-0-|-1---1-1--1-1-0--|
D||--0---0-0--0-0-0-|-0---0-0--0-0-0-|-2---2-2---2-2-0-|-0---0-0--0-0-0--|
A||o----------------|-2---2-2--2-2---|-3---3-3---3-3---|-2---2-2--2-2----|
E||-----------------|----------------|-----------------|-----------------|


   E E E Q  E Q     E E E Q  E Q     E E E Q  E E E    W
E|----------------|----------------|----------------|-^1--------------||
B|-------0--------|-------0--------|-------1--------|-^1-------------o||
G|-----5----5-----|-----5----5-----|-----0----0-----|-^0--------------||
D|---2--------2---|---2--------2---|---3--------3---|-^3--------------||
A|-0--------------|----------------|-3------------3-|----------------o||
D|----------------|-5--------------|----------------|-----------------||
 |
 | Q   E Q  E E E   Q   E Q  E E E   Q   E Q  E E E    Q  E Q  E E E
E|-0---0-0--0-0-0-|-3---3-3--3-3-0-|-1---1-1--1-1-1-|--1--1-1--1-1-0--||
B|-1---1-1--1-1-0-|-3---3-3--3-3-0-|-1---1-1--1-1-1-|--1--1-1--1-1-0-o||
G|-2---2-2--2-2-0-|-0---0-0--0-0-0-|-0---0-0--0-0-0-|--0--0-0--0-0-0--||
D|-2---2-2--2-2-0-|-0---0-0--0-0-0-|-3---3-3--3-3-3-|--3--3-3--3-3-0--||
A|-0---0-0--0-0---|-2---2-2--2-2---|-3---3-3--3-3-3-|--3--3-3--3-3---o||
D|----------------|----------------|----------------|-----------------||


[Outro]
    N.C.

     S S S S  S  S S S S S S S  S  S S S   S S S S S S S S S S S S  S  S S S
E||--------------------------------------|------------------------------------|
B||o----------6-----------------6--------|---------5--------------------------|
G||--------7-----7---7-4---4-7-----7-4---|-------7---7-4----------------------|
D||--7---7---------7-----5-------------7-|-5---5---------5-5-3-7-6--9--6-7-9--|
A||o---8---------------------------------|---7--------------------------------|
D||--------------------------------------|------------------------------------|
 |

 |   S S S S  S  S S S S S S S  S  S S S   S S S S S S S S S S S S  S  S S S
E||--------------------------------------|------------------------------------|
B||o-------------------------------------|------------------------------------|
G||-----------7--------------4--7--4-----|-------4-5-4------------------------|
D||------7-------7---7-5---5---------5-3-|-2---5-------5------------6------6--|
A||o-5-8---8-------8-----5---------------|---3-----------7-7-5-8-7-----7-9----|
D||--------------------------------------|------------------------------------|
 |

 |   S S S S +S  S E   S S S S +S  S S S   S S S S S S E   S S S S +S  S E
E||--1-----1-(1)-------------3-(3)-------|---------0-------------------0------|
B||o---3---------3---------0-------0-----|-------3---3-----------3-(3)---3----|
G||------2---------2---0h2---------------|-----0-------0-------1--------------|
D||--------------------------------------|---2---------------0----------------|
A||o---------------------------------0-2-|-3---------------2------------------|
D||--------------------------------------|------------------------------------|


    S S  S  S  S  S  S  S S S S S  S  S S S
E|------------------------------------------|
B|------------------------------------------|
G|---------------------------------4----4-5-|
D|-10-7-------10--7-----------5-------5-----|
A|-------7-----------7----2-5---5-----------|
D|---------10----------10-------------------|
 |
 |  S S  S  S  S  S  S  S S S S S  S  S S S
E|------------------------------------------|
B|------------------------------------------|
G|------------------------------------------|
D|--7----------7-------------------5----5-7-|
A|----7-----------7---------2-5-2-----5-----|
D|------10--7-------10--7-5-----------------|
 |
 |  S S  S  S +S  S  E    S S S S +S  S E
E|------------------------------------------|
B|----------0-(0)---------------0-(0)-------|
G|-------5--------5-----------5-------5-----|
D|----2--------------2------2-----------2---|
A|--0---------------------------------------|
D|------------------------5-----------------|


  1.                                        2.
   Q..               T T S S S S S S S S     W
E|----------------------------------------||------*|
B|---------------------------------------o||------*|
G|----------------------------------------||------*|
D|-7-----------------7-7-7S5-5S3-3S2-2S5--||-7----*|
A|---------------------------------------o||------*|
D|----------------------------------------||------*|
 |
 | Q..               T T S S S S S S S S     W
E|----------------------------------------||------*|
B|---------------------------------------o||------*|
G|----------------------------------------||------*|
D|-3--------------------------------------||-3----*|
A|-------------------8-8-8S7-7S5-5S3-3S7-o||------*|
D|----------------------------------------||------*|
 |
 | S   S S S +S  S S S   H                   W
E|-----------------------1----------------||-1----*|
B|---------1-(1)---------1---------------o||-1----*|
G|-------0-------0-------0----------------||-0----*|
D|-----3-----------3-----3----------------||-3----*|
A|-3-----------------3-------------------o||------*|
D|----------------------------------------||------*|


Duration Legend
---------------
W - whole; H - half; Q - quarter; E - 8th; S - 16th; T - 32nd; X - 64th; a - acciaccatura
+ - note tied to previous; . - note dotted; .. - note double dotted
Uncapitalized letters represent notes that are staccato (1/2 duration)
Irregular groupings are notated above the duration line
Duration letters will always appear directly above the note/fret number it represents the
duration for.  Duration letters with no fret number below them represent rests.  Multi-
bar rests are notated in the form Wxn, where n is the number of bars to rest for.  Low
melody durations appear below the staff

Tablature Legend
----------------
 h   - hammer-on
 p   - pull-off
 b   - bend
 pb  - pre-bend
 r   - bend release (if no number after the r, then release immediately)
 /\  - slide into or out of (from/to "nowhere")
 s   - legato slide
 S   - shift slide
 - natural harmonic
[n]  - artificial harmonic
n(n) - tapped harmonic
 ~   - vibrato
 tr  - trill
 T   - tap
 TP  - trem. picking
 PM  - palm muting
\n/  - tremolo bar dip; n = amount to dip
 \n  - tremolo bar down
 n/  - tremolo bar up
/n\  - tremolo bar inverted dip
 =   - hold bend; also acts as connecting device for hammers/pulls
 <> - volume swell (louder/softer)
 x   - on rhythm slash represents muted slash
 o   - on rhythm slash represents single note slash
Suggest correction
comments
print report bad tab
24 comments total. Showing first comments.
0 reply
mackdaddy 62 wrote on September 10 2005, 12:00 am

looks good.

0 reply
Cone 21 20 wrote on September 16 2005, 12:00 am

whats up with the big-ass gaps in the verse, over all great tab though

0 reply
pHaKe 997 wrote on November 10 2005, 01:19 pm

best Bat Country Tab

guest
You may want to rate the tab now too:
select rating
Wanna post a correction for this tab? Suggest correction