Oops, an error
Loading. Please wait.

Bat Country Bass Tab

version 5
version 5

Whole song

551 views 1 this week
no commentswrite comment
1 2 3 4 5
please rate
add to favorites
launch autoscroll
font size
0
reset
guitar tuner
Autoscroll
slow
fast
+/-
esc
set tempo
stop
Help us to improve Ultimate-Guitar.com Take our survey!
×
Author
Difficulty
Tuning
intermediate
D A D G B E
Intro
G|-----------------------|
D|-----------------------|
A|-5555------------------|
D|------666-0-00-5356530-| x2

Pre-Verse (00:15)
G|----------------|
D|----------------|
A|-5~-------------|
D|-----6~--5~--3~-| x2

Verse (00:23)
G|------------------------|
D|------------------------|
A|-55555------------------|
D|-------66666-0000000000-| x2

Pre-Chorus (00:30)
G|--------------------------|
D|--------------------------|
A|-55555--------------44444-|
D|--------66666-55555-------|

G|-------------------------|
D|-------------------------|
A|-55555-77777-------------|
D|-------------33333-22222-|

Chorus (00:38)
G|-------------------------------------|
D|-------------------------------------|
A|-5-5-5555-------------3-3333----3333-|
D|----------555-3-0-3-0--------33------| x2

Verse (00:53)
G|------------------------|
D|------------------------|
A|-55555------------------|
D|-------66666-0000000000-| x4

Pre-Chorus (01:09)
G|--------------------------|
D|--------------------------|
A|-55555--------------44444-|
D|--------66666-55555-------|

Chorus (01:16)
G|-------------------------------------|
D|-------------------------------------|
A|-5-5-5555-------------3-3333----3333-|
D|----------555-3-0-3-0--------33------| x2

Clean Part(01:32)
G|--------------------------------------|
D|---3/5~----02~-0-----------5/75353232-|
A|-5~----53~------0~-0------------------|
D|--------------------5~-53~------------| x2

Pre-Verse (02:02)
G|----------------|
D|----------------|
A|-5~-------------|
D|-----6~--5~--3~-| x4

Guitar Solo (02:18)
G|--------------|
D|--------------|
A|-5~-----------|
D|----6~--5~--0-| x2

(02:26)
G|-----------------------------|
D|-----------------------------|
A|-55555-----------------------|
D|-------66666-00000000-333/6~-| x4

(02:41)
G|--------------------------|
D|--------------------------|
A|-55555--------------44444-|
D|--------66666-55555-------|

G|---------------------------|
D|---------------------------|
A|-55555-77777---------------|
D|-------------33333-22222-0-|

(02:53)
G|----------------------------------------|
D|----------------------------------------|
A|----------------3-3333~-0-0000~-4-4444~-|
D|-0-0000~-5-5555~------------------------| x2

(03:08)
G|---------|---------|-----------------|
D|---------|---------|-----------------|
A|-----0---|----1-0--|-0-------5-3-8-7-|
D|-3-0--53-|-22----5-|---5-3-2---------|

Verse (03:16)
G|------------------------|
D|------------------------|
A|-55555------------------|
D|-------66666-0000000000-| x4

(03:30)
G|-----------------------------------|
D|-----------------------------------|
A|--------------33333333-------------|
D|-0-2-33333333----------55555555-0~-|

(03:37)
G|-------------------------------------------------------------|
D|-------------------------------------------------------------|
A|--------------------33333333-11111111111111-000000-4444444---|
D|-0000000-2-33333333------------------------------------------|

 Chorus (03:50)
G|-------------------------------------|
D|-------------------------------------|
A|-5-5-5555-------------3-3333----3333-|
D|----------555-3-0-3-0--------33------| x2


Clean Part (04:06)
G|--------------------------------------|
D|---3/5~----02~-0-----------5/75353232-|
A|-5~----53~------0~-0------------------|
D|--------------------5~-53~------------| x2

Outro
G|---------------------------------------------------|
D|-----------------------222222----------------------|
A|-555555---------333333--------000000---------------|
D|---------555555----------------------555555-333333-|

G|-----------------------------------------------|
D|-----------------------222222------------------|
A|-555555---------333333--------000000-----------|
D|---------555555----------------------555555-3~-|
Suggest correction
What's this?
You can suggest a correction to this tab. Community and Mods will review your correction and vote to approve or reject it.
comments
We did not receive enough feedback on this tab! Please rate:
print report bad tab
1 2 3 4 5
guest
You may want to rate the tab now too:
select rating
Please do not post tabs as comments. Select "correction" instead!