Oops, an error
Loading. Please wait.

Bat Country bass

version 7
version 7

Whole song

559 views 1 this week
3 commentsread comments
1 2 3 4 5
1 last vote to show rating
add to favorites
×
Save as Personal and add changes to this tab that will be seen only by you. Learn more ›
×
You can save this tab as Personal to edit and correct it or add notes. All changes will be seen only by you. Learn more »
launch autoscroll
font size
0
reset
guitar tuner
backing track
0:00
0:00
edit
Autoscroll
slow
fast
+/-
esc
set tempo
stop
Author
Avenged Sevenfold - Bat Country Bass tab (Five string bass)
In B standard tuning.

Intro 2x (00:07)
G------------------------------------|
D------------------------------------|
A---555-55---------------------------|
E----------444-44----134431----------|
B----------------3-3--------3--------|
Pre-Verse 2x(00:15)
G---------------------------|
D---------------------------|
A---5~----------------------|
E---------4~----------------|
B--------------8~-----6~----|

Verse 2x (00:23)
G---------------------------------------------------------|
D---------------------------------------------------------|
A---55555555----------------------------------------------|
E------------44444444-------------------------------------|
B---------------------333333333333333---------------------|

Pre-Chorus 1x (00:30)
G--------------------------------------------------------------------|
D--------------------------------------------------------------------|
A---5555555-----------------4444444-5555555-777777-------------------|
E-----------4444444--------------------------------------------------|
B-------------------8888888-------------------------6666666-5555555--|

Chorus (00:38) 2x
G------------------------------------------|
D---------------------------------------23-|
A---5-5-55-----------3-3333333-----333-----|
E------------444\1--1----------111---------|
B------------------3-----------------------|
Verse 4x (00:53)
G--------------------------------------------|
D--------------------------------------------|
A---55555555---------------------------------|
E------------44444444------------------------|
B----------------------333333333333333-------|

Pre-Chorus 1x (01:09)
G------------------------------------------------------------------|
D------------------------------------------------------------------|
A---5555555-----------------4444444-5555555-777777-----------------|
E-----------4444444------------------------------------------------|
B-------------------8888888------------------------6666666-5555555-|

Clean Part (01:32)
G---------------------------------------------------------------------------|
D---------3555555---------02222222-0000000-----------------------575353232--|
A-5555555--------53333333------------------000000---------------------------|
E--------------------------------------------------------3333333------------|
B-------------------------------------------------666666--------------------|

Pre-Verse 2x(02:03)
G---------------------------|
D---------------------------|
A---5~----------------------|
E---------4~----------------|
B--------------8~-----6~----|

Guitar solo (02:18)
G----------------------|
D----------------------|
A---5~-----------------|
E-------4~-------------|
B-----------8~----0----|

Guitar solo 4X (02:26)
G--------------------------------------------------|
D--------------------------------------------------|
A---5555555----------------------------------------|
E----------4444444---------------------------------|
B-----------------3333333--678-88------------------|

Pre-Chorus 1x (02:41)
G------------------------------------------------------------------|
D------------------------------------------------------------------|
A---5555555----------------4444444-5555555-777777------------------|
E----------4444444-------------------------------------------------|
B------------------8888888------------------------6666666-55555550-|

(2:49-2:52) no bass

guitar solo 2x (02:53)
G---------------------------------------------------------------|
D---------------------------------------------------------------|
A-------------------------3-33333~-0-00000~-4-44444~------------|
E--------------3-33333~-----------------------------------------|
B---3-33333~----------------------------------------------------|

After guitar solo (03:08)
G-------------------------------------------------------|
D-------------------------------------------------------|
A-------------------------------------5-4---8-7---------|
E-----5-3-1--0~---6-5-3--5--3--1--0---------------------|
B---3---------------------------------------------------|

Verse 4x (00:53)
G------------------------------------------------------|
D------------------------------------------------------|
A---55555555-------------------------------------------|
E------------44444444----------------------------------|
B----------------------333333333333333-----------------|

(03:30)
G---------------------------------------------------|
D---------------------------------------------------|
A---------------------------------------------------|
E-------------88888888------------------------------|
B-3-5-66666666---------88888888-0-------------------|

(03:37)
G-----------------------------------------------------------------------------|
D-----------------------------------------------------------------------------|
A------------------------------------------------00000000---------------------|
E-----------------------88888888-6666666666666-------------99999999-----------|
B-33333333-5-66666666---------------------------------------------------------|

Chorus (03:50) 2x
G---------------------------------------------------|
D----------------------------------------------23---|
A---5-5-55-----------3-3333333-----333--------------|
E------------444\1--1--------------111--------------|
B-------------------3-------------------------------|

Clean Part (04:06
G-----------------------------------------------------------------------------|
D---------3555555---------02222222-0000000-----------------------575353232----|
A-5555555--------53333333------------------000000-----------------------------|
E--------------------------------------------------------3333333--------------|
B-------------------------------------------------666666----------------------|

OUTRO
G-------------------------------------------------------------------|
D----------------------------22222222-------------------------------|
A-55555555----------33333333-----------00000000---------------------|
E-------------------------------------------------------------------|
B----------88888888-----------------------------88888888-66666666---|

G-------------------------------------------------------------|
D------------------------------22222222-----------------------|
A-55555555------------33333333----------00000000--------------|
E-------------------------------------------------------------|
B-----------88888888------------------------------88888888-6~-|

If theres anything wrong or out of place, just comment, and well this my first tab ever 
so yeah thought I'd tr it out, and I didn't see much five string bass tabs out there.
Suggest correction
Creating personal tab
Creating personal tab
You can edit any tab online and save it as your Personal.

You can edit, replace or remove any tab part or add personal notes – all changes will be seen only by you.

Personal tabs can be accessed anytime from any device, even offline.
Learn more »
Give kudos to tab author, rate the tab!
1 2 3 4 5
comments
print report bad tab
3 comments total.
0 reply
Mars Sevenfold 241 Sep 18, 2013 10:15 PM

it's look perfect .. Good Job .. =)

0 reply
Scorch18 30 Sep 22, 2013 04:55 PM

Thanks dude, but I see some parts that could be fixed

0 reply
KilljoyBassist 193 Jan 17, 2014 04:28 PM

This is played on a 4 String in Drop D, and the clean part isn't straight 8ths. i cant comment on anything else as I do not own a 5 string so i can't even play it.

guest
You may want to rate the tab now too:
select rating
Wanna post a correction for this tab? Suggest correction