Oops, an error
Loading. Please wait.

Beast And The Harlot Tab

version 1
71,279 views 36 this week
10 commentsread comments
1 2 3 4 5
worth learning
x 10
add to favorites
launch autoscroll
font size
0
reset
how to read this tab
guitar tuner
Autoscroll
slow
fast
+/-
esc
set tempo
stop
Help us to improve Ultimate-Guitar.com Take our survey!
×
Author
Difficulty
-------------------------------------------------------------------------------
                             Beast and The Harlot - Avenged Sevenfold
-------------------------------------------------------------------------------
Tabbed by:freddotheguitar
Email:freddo99@hotmail.co.uk

Tuning:DADGBe

I noticed that nobody has got the solo right yet so i this is how i play it

90percent rite methinks coz the reel fast bit in the middle maybe not perfect but it still sounds rad

e|-10~~~~--13~~~~--16~~~~------------------------------------------------------|
B|-13b15~--16b18~--19b21~------------------------------------------------------|
G|-----------------------------------------------------------------------------|
D|-----------------------------------------------------------------------------|
A|-----------------------------------------------------------------------------|
E|-----------------------------------------------------------------------------|

e|-13p10--10-------------------------------------------------------------------|
B|------13--13b15~~-8~~--9~~--10~~--11~~--13121110141312111514131215p141517----|
G|------------------10b1211b1312b1413b15---------------------------------------|
D|-----------------------------------------------------------------------------|
A|-----------------------------------------------------------------------------|
E|-----------------------------------------------------------------------------|

e|-17-17p13--13--13--------2017-------------------------------------109----912-|
B|---------17--17--1713--13----2017------------------------------910---1210----|
G|---------------------14----------201917------57-7-579-7910--910--------------|
D|------------------------------------------578--------------------------------|
A|---------------------------------------578-----------------------------------|
E|-----------------------------------------------------------------------------|

e|--/13-/13-/15-/12-/8---------------------------------------------------------|
B|---------------------13b15-151310--------------------------------------------|
G|---------------------------------+10+----------------------------------------|
D|-----------------------------------------------------------------------------|
A|-----------------------------------------------------------------------------|
E|-----------------------------------------------------------------------------|

e|-----------------------------------------------------------------------------|
B|---------5-------------------------------------------------------------------|
G|-------57-75--------------791097------------------91012109-------------------|
D|----578-----875-------7810------1087---------81012--------12108--------------|
A|-578-----------87-7810--------------108-81012------------------1210----------|
E|-----------------------------------------------------------------------------|

e|-----------------------------------------------------------------------------|
B|-----------------------------------------------------------------------------|
G|-----------91012109--9b10\---------------------------------------------------|
D|------81012--------12--------------------------------------------------------|
A|-81012-----------------------------------------------------------------------|
E|-----------------------------------------------------------------------------|
-
e|-21201918--------------------------------------------------------------------|
B|---------21201918----------------21201918------------------------------------|
G|-----------------21201918----------------21201918----------------------------|
D|-------------------------21201918----------------21201918--------------------|
A|---------------------------------------------------------21201918------------|
E|-----------------------------------------------------------------------------|

e|-18171615--------------------------------------------------------------------|
B|---------18171615----------------18171615------------------------17b18~~~----|
G|-----------------18171615----------------18171615----------------------------|
D|-------------------------18171615----------------18171615--------------------|
A|---------------------------------------------------------18171615------------|
E|-----------------------------------------------------------------------------|


| /  slide up
| \  slide down
| h  hammer-on
| p  pull-off
| ~  vibrato
| +  harmonic
| x  Mute note
===============================================================================
Suggest correction
comments
print report bad tab
10 comments total. Showing first comments.
0 reply
CarlShahuesa 10 wrote on November 6 2006, 07:13 pm

wrong frets

-2 reply
Seth Shadows 4,623 wrote on November 14 2006, 08:38 am

Wrong Tuning. And it's very uneven

-1 reply
synysterbass... 10 wrote on November 25 2006, 05:02 am

nice tab!

guest
You may want to rate the tab now too:
select rating
Wanna post a correction for this tab? Suggest correction