Oops, an error
Loading. Please wait.

Beast And The Harlot Tab

version 1
375,725 views 60 this week
35 commentsread comments
1 2 3 4 5
x 44
add to favorites
launch autoscroll
font size
0
reset
how to read this tab
guitar tuner
Autoscroll
slow
fast
+/-
esc
set tempo
stop
Help us to improve Ultimate-Guitar.com Take our survey!
×
Author
Artist: Avenged Sevenfold
Song: Beast and the harlot

Gtr 1 (D A D G B E) - 'Untitled'
Gtr 2 (D A D G B E) - 'Untitled'
Gtr 3 (D A D G B E) - 'Untitled'
Gtr 4 (D A D G B E) - 'Untitled'

[Intro]
Moderately Slow Rock Q.=52
   F#5                       D5
  9/8
(Gtr 1)
e|------------------------|----------------------|
B|------------------------|----------------------|
G|------------------------|--7----7--7--7--7---7-|
D|--4---4--4--4--4--4---4-|--7----7--7--7--7---7-|
A|--4---4--4--4--4--4---4-|--5----5--5--5--5---5-|
E|--4---4--4--4--4--4---4-|----------------------|

(Gtr 2)
    ~~              ~~        ~~            ~~
e|------------------------|----------------------|
B|--7---7--6--7--9-10---5-|--6----6--5--6--8--/6-|
G|------------------------|----------------------|
D|------------------------|----------------------|
A|------------------------|----------------------|
E|------------------------|----------------------|

(Gtr 4)
e|------------------------|----------------------|
B|-19--19-18-19-21-22--17-|-18---18-17-18-20--18-|
G|------------------------|----------------------|
D|-16--16-15-16-18-19--14-|-15---15-14-15-17--15-|
A|------------------------|----------------------|
E|------------------------|----------------------|

   Db5                    C5
                         6/8
e|----------------------|------------------|
B|----------------------|------------------|
G|--6----6--6--6--6---6-|--5------5--5--5--|
D|--6----6--6--6--6---6-|--5------5--5--5--|
A|--4----4--4--4--4---4-|--3------3--3--3--|
E|----------------------|------------------|

    ~~            ~~       ~~
e|----------------------|------------------|
B|--6----6--5--6--8--/6-|--6---6--5--6--8--|
G|----------------------|------------------|
D|----------------------|------------------|
A|----------------------|------------------|
E|----------------------|------------------|

e|----------------------|------------------|
B|-18---18-17-18-20--18-|-18--18-17-18-20--|
G|----------------------|------------------|
D|-15---15-14-15-17--15-|-15--15-14-15-17--|
A|----------------------|------------------|
E|----------------------|------------------|

   F5                            Db5
e|-----------------------------|--------------------------|
B|-----------------------------|--------------------------|
G|-----------------------------|---6-6-6---6---6--6--6--6-|
D|--3-3-3--3---3--3-3-3--3---3-|---6-6-6---6---6--6--6--6-|
A|--3-3-3--3---3--3-3-3--3---3-|---4-4-4---4---4--4--4--4-|
E|--3-3-3--3---3--3-3-3--3---3-|--------------------------|

   ~~            ~~               ~~~
e|-----------------------------|--------------------------|
B|-/9-----(9)\---/9-----(9)\---|-/11-----(11)\----9-11-13-|
G|-----------------------------|--------------------------|
D|-----------------------------|--------------------------|
A|-----------------------------|--------------------------|
E|-----------------------------|--------------------------|

e|-16------------16------------|--18-------------16-18-20-|
B|-----------------------------|--------------------------|
G|-13------------13------------|--15-------------13-15-17-|
D|-----------------------------|--------------------------|
A|-----------------------------|--------------------------|
E|-----------------------------|--------------------------|

   Bb5
e|---------------------------------|
B|---------------------------------|
G|---3-3-3---3---3---3-3-3---3---3-|
D|---3-3-3---3---3---3-3-3---3---3-|
A|---1-1-1---1---1---1-1-1---1---1-|
E|---------------------------------|

     ~~~             ~~~
e|---------------------------------|
B|-/14-----(14)\---/14-----(14)\---|
G|---------------------------------|
D|---------------------------------|
A|---------------------------------|
E|---------------------------------|

e|--21--------------21-------------|
B|---------------------------------|
G|--18--------------18-------------|
D|---------------------------------|
A|---------------------------------|
E|---------------------------------|

   A5
e|-----------------|----------------|
B|-----------------|----------------|
G|--2--------------|--(2)-----------|
D|--2--------------|--(2)-----------|
A|--0--------------|--(0)-----------|
E|-----------------|----------------|

              ~~~~~~~~~~~~~~~~~~~~
e|-----------------|----------------|
B|-16b17====(16)---|-(16)---(16)r---|
G|-----------------|----------------|
D|-----------------|----------------|
A|-----------------|----------------|
E|-----------------|----------------|

e|-21--------------|-(21)-----------|
B|-----------------|----------------|
G|-18--------------|-(18)-----------|
D|-----------------|----------------|
A|-----------------|----------------|
E|-----------------|----------------|

Faster Q=155
D5
4/4
(Gtr 1)
e|----------|------------|------------|--------|
B|----------|------------|------------|--------|
G|----------|------------|------------|--------|
D|-0--------|-(0)--------|-(0)--------|-(0)----|
A|-0--------|-(0)--------|-(0)--------|-(0)----|
E|-0--------|-(0)--------|-(0)--------|-(0)----|

(Gtr 2)
e|----------|------------|------------|--------|
B|----------|------------|------------|--------|
G|----------|------------|------------|--------|
D|-0--------|-(0)--------|-(0)--------|-(0)----|
A|-0--------|-(0)--------|-(0)--------|-(0)----|
E|-0--------|-(0)--------|-(0)--------|-(0)----|

   D5
(Gtr 1)
e|--------------------------------|-----------------------------|
B|--------------------------------|-----------------------------|
G|--------------------------------|-----------------------------|
D|--0-----------------------------|--(0)------------------------|
A|--0-----------------------------|--(0)------------------------|
E|--0-----------------------------|--(0)------------------------|

(Gtr 2)
|  PM----|    PM----|    PM----|        PM----|    PM----|
|--------------------------------|-----------------------------|
|--------------------------------|-----------------------------|
|--------------------------------|-----------------------------|
|--0-0-0-0-15-0-0-0-0-17-0-0-0-0-|--18--0-0-0-0-17-0-0-0-0-15--|
|--------------------------------|-----------------------------|
|--------------------------------|-----------------------------|

(Gtr 3)
e|-22-----------------------------|-(22)------------------------|
B|--------------------------------|-----------------------------|
G|--------------------------------|-----------------------------|
D|--------------------------------|-----------------------------|
A|--------------------------------|-----------------------------|
E|--------------------------------|-----------------------------|

e|----------------------------------|-------------------------------|
B|----------------------------------|-------------------------------|
G|----------------------------------|-------------------------------|
D|--(0)-----------------------------|--(0)--------------------------|
A|--(0)-----------------------------|--(0)--------------------------|
E|--(0)-----------------------------|--(0)--------------------------|

   PM-----|    PM----|    PM----|        PM----|    PM----|
e|----------------------------------|-------------------------------|
B|----------------------------------|-------------------------------|
G|----------------------------------|-------------------------------|
D|---0--0-0-0-15-0-0-0-0-17-0-0-0-0-|--18--0-0-0-0-17-0-0-0-0-15----|
A|----------------------------------|-------------------------------|
E|----------------------------------|-------------------------------|

e|-(22)-----------------------------|-(22)--------------------------|
B|----------------------------------|-------------------------------|
G|----------------------------------|-------------------------------|
D|----------------------------------|-------------------------------|
A|----------------------------------|-------------------------------|
E|----------------------------------|-------------------------------|

   D5
e|----------------------------------|----------------------------|
B|----------------------------------|----------------------------|
G|----------------------------------|----------------------------|
D|--(0)-----------------------------|-(0)------------------------|
A|--(0)-----------------------------|-(0)------------------------|
E|--(0)-----------------------------|-(0)------------------------|

   PM-----|    PM----|    PM----|       PM----|    PM----|
|----------------------------------|----------------------------|
|----------------------------------|----------------------------|
|----------------------------------|----------------------------|
|---0--0-0-0-15-0-0-0-0-17-0-0-0-0-|-18--0-0-0-0-17-0-0-0-0-15--|
|----------------------------------|----------------------------|
|----------------------------------|----------------------------|

e|-(22)-----------------------------|----------------------------|
B|----------------------------------|----------------------------|
G|----------------------------------|----------------------------|
D|----------------------------------|----------------------------|
A|----------------------------------|----------------------------|
E|----------------------------------|----------------------------|

e|---------------------------------|------------------------------------------|
B|---------------------------------|------------------------------------------|
G|---------------------------------|------------------------------------------|
D|-(0)-----------------------------|-(0)--------------------------------------|
A|-(0)-----------------------------|-(0)--------------------------------------|
E|-(0)-----------------------------|-(0)--------------------------------------|

  PM-----|    PM----|    PM----|       PM----|
e|---------------------------------|-------------------------10s13-10----13---|
B|---------------------------------|----------------------10----------13------|
G|---------------------------------|-------------12-10-13---------------------|
D|--0--0-0-0-15-0-0-0-0-17-0-0-0-0-|-18--0-0-0-0------------------------------|
A|---------------------------------|------------------------------------------|
E|---------------------------------|------------------------------------------|

e|---------------------------------|------------------------------------------|
B|---------------------------------|------------------------------------------|
G|---------------------------------|------------------------------------------|
D|---------------------------------|------------------------------------------|
A|---------------------------------|------------------------------------------|
E|---------------------------------|------------------------------------------|


[Pre-Verse]
  N.C.         F5           G5          Ab5          G5        F5G5
   PM--------|      PM----|   PM----|        PM----|   PM----|
e|-------------------------------------|----------------------------|
B|-------------------------------------|----------------------------|
G|-------------------------------------|----------------------------|
D|----------------3----------5---------|---6----------5---------3-5-|
A|----------------3----------5---------|---6----------5---------3-5-|
E|--0-----0-0-0---3--0-0-0-0-5-0-0-0-0-|---6--0-0-0-0-5-0-0-0-0-3-5-|

e|-10----------------------------------|----------------------------|
B|-------------------------------------|----------------------------|
G|-------------------------------------|----------------------------|
D|-------------------------------------|----------------------------|
A|-------------------------------------|----------------------------|
E|-------------------------------------|----------------------------|

e|-20b22--------(20)-------------------|-(20)-----------------------|
B|-------------------------------------|----------------------------|
G|-------------------------------------|----------------------------|
D|-------------------------------------|----------------------------|
A|-------------------------------------|----------------------------|
E|-------------------------------------|----------------------------|

              F5        G5    Ab5             F5        G5    Ab5
     PM-----|   PM----|   PM|       PM------|   PM----|   PM|
e|------------------------------|----------------------------------|
B|------------------------------|----------------------------------|
G|------------------------------|----------------------------------|
D|------------3---------5-----6-|-------------3---------5-----6----|
A|------------3---------5-----6-|-------------3---------5-----6----|
E|---0--0-0-0-3-0-0-0-0-5-0-0-6-|---0---0-0-0-3-0-0-0-0-5-0-0-6----|

e|------------------------------|----------------------------------|
B|------------------------------|----------------------------------|
G|------------------------------|----------------------------------|
D|------------------------------|----------------------------------|
A|------------------------------|----------------------------------|
E|------------------------------|----------------------------------|

e|-(20)-------------------------|-(20)r----------------------------|
B|------------------------------|----------------------------------|
G|------------------------------|----------------------------------|
D|------------------------------|----------------------------------|
A|------------------------------|----------------------------------|
E|------------------------------|----------------------------------|

  N.C.    F5        G5          Ab5       G5        F5G5
  Gtr I
  PM----|   PM----|   PM----|     PM----|   PM----|
e|-----------------------------|-------------------------|
B|-----------------------------|-------------------------|
G|-----------------------------|-------------------------|
D|---------3---------5---------|-6---------5---------3-5-|
A|---------3---------5---------|-6---------5---------3-5-|
E|-0-0-0-0-3-0-0-0-0-5-0-0-0-0-|-6-0-0-0-0-5-0-0-0-0-3-5-|

          F5        G5    Ab5         F5
  PM----|   PM----|   PM|     PM----|   PM----|   PM|
e|---------------------------|------------------------------|
B|---------------------------|------------------------------|
G|---------------------------|------------------------------|
D|---------3---------5-----6-|---------3---------3-----3----|
A|---------3---------5-----6-|---------3---------3-----3----|
E|-0-0-0-0-3-0-0-0-0-5-0-0-6-|-0-0-0-0-3-0-0-0-0-3-0-0-3----|

[Verse]                                                          $
    N.C.    F5        G5          Ab5       G5        F5G5
    Gtrs I, II
    PM----|   PM----|   PM----|     PM----|   PM----|
e|------------------------------|-------------------------|
B|o-----------------------------|-------------------------|
G|------------------------------|-------------------------|
D|----------3---------5---------|-6---------5---------3-5-|
A|o---------3---------5---------|-6---------5---------3-5-|
E|--0-0-0-0-3-0-0-0-0-5-0-0-0-0-|-6-0-0-0-0-5-0-0-0-0-3-5-|

  N.C.    F5        G5    Ab5         F5        G5    Ab5
  PM----|   PM----|   PM|     PM----|   PM----|   PM|
e|---------------------------|------------------------------|
B|---------------------------|------------------------------|
G|---------------------------|------------------------------|
D|---------3---------5-----6-|---------3---------5-----6----|
A|---------3---------5-----6-|---------3---------5-----6----|
E|-0-0-0-0-3-0-0-0-0-5-0-0-6-|-0-0-0-0-3-0-0-0-0-5-0-0-6----|

  N.C.    F5        G5          Ab5       G5        F5G5
  PM----|   PM----|   PM----|     PM----|   PM----|
e|-----------------------------|-------------------------|
B|-----------------------------|-------------------------|
G|-----------------------------|-------------------------|
D|---------3---------5---------|-6---------5---------3-5-|
A|---------3---------5---------|-6---------5---------3-5-|
E|-0-0-0-0-3-0-0-0-0-5-0-0-0-0-|-6-0-0-0-0-5-0-0-0-0-3-5-|

  N.C.    F5        G5    Ab5         F5
  PM----|   PM----|   PM|     PM----|   PM----|   PM|
e|---------------------------|------------------------------|
B|---------------------------|------------------------------|
G|---------------------------|------------------------------|
D|---------3---------5-----6-|---------3---------3-----3----|
A|---------3---------5-----6-|---------3---------3-----3----|
E|-0-0-0-0-3-0-0-0-0-5-0-0-6-|-0-0-0-0-3-0-0-0-0-3-0-0-3----|


   Bb5         G5 Ab5A5 Bb5    A5 Bb5B5 C5
e|-----------|--------------||---------------||
B|-----------|-------------o||---------------||
G|-----------|--------------||---------------||
D|-8------8S=|=5--6--7--8---||-7--8--9--10\--||
A|-8------8S=|=5--6--7--8--o||-7--8--9--10\--||
E|-8------8S=|=5--6--7--8---||-7--8--9--10\--||


[Chorus]
$$
F5
(Gtr 1)
e|------------------------------------|
B|o-----------------------------------|
G|------------------------------------|
D|---3--3-3-(3)-3--3--3--3-3-(3)-3--3-|
A|o--3--3-3-(3)-3--3--3--3-3-(3)-3--3-|
E|---3--3-3-(3)-3--3--3--3-3-(3)-3--3-|

[Gtr 2]
e|----------------13---------------13-|
B|o---------13---------------13-------|
G|-----14---------------14------------|
D|--15---------------15---------------|
A|o-----------------------------------|
E|------------------------------------|

   C5
e|-----------------------------------------|
B|-----------------------------------------|
G|-----------------------------------------|
D|-10-10-10-(10)-10-10-10-10-10-(10)-10-10-|
A|-10-10-10-(10)-10-10-10-10-10-(10)-10-10-|
E|-10-10-10-(10)-10-10-10-10-10-(10)-10-10-|

e|------------------12------------------12-|
B|-----------13------------------13--------|
G|----12------------------12---------------|
D|-14------------------14------------------|
A|-----------------------------------------|
E|-----------------------------------------|

   Bb5
e|-----------------------------------|------------------------------------|
B|-----------------------------------|-----------------------------------o|
G|-----------------------------------|------------------------------------|
D|--8--8-8-(8)-8--8--8--8-8-(8)-8--8-|--8--8-8-(8)-8--8--8--8-8-(8)-8--8--|
A|--8--8-8-(8)-8--8--8--8-8-(8)-8--8-|--8--8-8-(8)-8--8--8--8-8-(8)-8--8-o|
E|--8--8-8-(8)-8--8--8--8-8-(8)-8--8-|--8--8-8-(8)-8--8--8--8-8-(8)-8--8--|

e|---------------10---------------10-|---------------10-10------12--------|
B|---------11---------------11-------|---------11----------11---------13-o|
G|----10---------------10------------|----10------------------------------|
D|-12---------------12---------------|-12---------------------------------|
A|-----------------------------------|-----------------------------------o|
E|-----------------------------------|------------------------------------|

   G5                                  F5
e|-----------------------------------|-----------------------------------|
B|-----------------------------------|-----------------------------------|
G|-----------------------------------|-----------------------------------|
D|--5--5-5-(5)-5--5--5--5-5-(5)-5--5-|--3--3-3-(3)-3--3--3--3-3-(3)-3--3-|
A|--5--5-5-(5)-5--5--5--5-5-(5)-5--5-|--3--3-3-(3)-3--3--3--3-3-(3)-3--3-|
E|--5--5-5-(5)-5--5--5--5-5-(5)-5--5-|--3--3-3-(3)-3--3--3--3-3-(3)-3--3-|

e|---------------15---------------15-|---------------13---------------13-|
B|---------15---------------15-------|---------13---------------13-------|
G|----15---------------15------------|----14---------------14------------|
D|-17---------------17---------------|-15---------------15---------------|
A|-----------------------------------|-----------------------------------|
E|-----------------------------------|-----------------------------------|

   C5                                        Bb5
e|-----------------------------------------|-----------------------------------|
B|-----------------------------------------|-----------------------------------|
G|-----------------------------------------|-----------------------------------|
D|-10-10-10-(10)-10-10-10-10-10-(10)-10-10-|--8--8-8-(8)-8--8--8--8-8-(8)-8--8-|
A|-10-10-10-(10)-10-10-10-10-10-(10)-10-10-|--8--8-8-(8)-8--8--8--8-8-(8)-8--8-|
E|-10-10-10-(10)-10-10-10-10-10-(10)-10-10-|--8--8-8-(8)-8--8--8--8-8-(8)-8--8-|

e|------------------12------------------12-|---------------10---------------10-|
B|-----------13------------------13--------|---------11---------------11-------|
G|----12------------------12---------------|----10---------------10------------|
D|-14------------------14------------------|-12---------------12---------------|
A|-----------------------------------------|-----------------------------------|
E|-----------------------------------------|-----------------------------------|

   F5 Bb5       E5 Bb5         D5 Bb5       C5 Bb5A5 Bb5
e|---------------------------|--------------------------|
B|---------------------------|--------------------------|
G|-10------------9-----------|--------------------------|
D|-10--8-(8)--8--9--8-(8)--8-|-12--8-(8)--8-10--8--7--8-|
A|--8--8-(8)--8--7--8-(8)--8-|-12--8-(8)--8-10--8--7--8-|
E|-----8-(8)--8-----8-(8)--8-|-12--8-(8)--8-10--8--7--8-|

e|-13-----------12-----------|-10-----------------------|
B|----11-----11----11-----11-|----11-----11-13-11-10-11-|
G|-------10-----------10-----|-------10-----------------|
D|---------------------------|--------------------------|
A|---------------------------|--------------------------|
E|---------------------------|--------------------------|

(To Coda)
                                                  
   A5           Db6
e|----------------------------|-----------------------------|
B|----------------------------|-----------------------------|
G|----------------------------|-----------------------------|
D|--7--7-(7)--7-11-11-(11)-11-|-11-11-(11)-11-11-11-(11)-11-|
A|--7--7-(7)--7-12-12-(12)-12-|-12-12-(12)-12-12-12-(12)-12-|
E|--7--7-(7)--7-11-11-(11)-11-|-11-11-(11)-11-11-11-(11)-11-|

e|-12-----------10------------|--9--------------------------|
B|----10-----10----10------10-|----10------10-11-10---------|
G|--------9-------------9-----|---------9-------------9-----|
D|----------------------------|--------------------------11-|
A|----------------------------|-----------------------------|
E|----------------------------|-----------------------------|

[Bridge]
  N.C.     F5        G5              Ab5        G5        F5G5
  Gtr I
   PM----|   PM----|     PM------|      PM----|   PM----|
e|----------------------------------|--------------------------|
B|----------------------------------|--------------------------|
G|----------------------------------|--------------------------|
D|----------3---------5-------------|--6---------5---------3-5-|
A|----------3---------5-------------|--6---------5---------3-5-|
E|--0-0-0-0-3-0-0-0-0-5---0---0-0-0-|--6-0-0-0-0-5-0-0-0-0-3-5-|

Gtr 2, 3                       Gtr 2
e|-10-------------------(10)\-------|-13-----------------------|
B|----------------------------------|--------------------------|
G|--7--------------------(7)\-------|--------------------------|
D|----------------------------------|--------------------------|
A|----------------------------------|--------------------------|
E|----------------------------------|--------------------------|

  N.C.     F5        G5    Ab5            F5
   PM----|   PM----|   PM|      PM----|        PM----|   PM|
e|----------------------------|------------------------------------|
B|----------------------------|------------------------------------|
G|----------------------------|------------------------------------|
D|----------3---------5-----6-|--------------3----------3-----3----|
A|----------3---------5-----6-|--------------3----------3-----3----|
E|--0-0-0-0-3-0-0-0-0-5-0-0-6-|--0-0-0---0---3--0-0-0-0-3-0-0-3----|

e|-16-------------------------|-16-----/16-(16)--------------------|
B|----------------------------|------------------------------------|
G|----------------------------|------------------------------------|
D|----------------------------|------------------------------------|
A|----------------------------|------------------------------------|
E|----------------------------|------------------------------------|

   Bb5                               G5     Ab5    A5     Bb5
e|---------------------------------|-----------------------------|
B|---------------------------------|-----------------------------|
G|---------------------------------|-----------------------------|
D|--8----------------------8S------|==5------6------7------8-----|
A|--8----------------------8S------|==5------6------7------8-----|
E|--8----------------------8S------|==5------6------7------8-----|

e|-13-10----10---------------------|-----------------------------|
B|-------13----13b15-----(13)r(13)-|--8------9-----10-----11-----|
G|---------------------------------|-10b12--11b13--12b14--13b15--|
D|---------------------------------|-----------------------------|
A|---------------------------------|-----------------------------|
E|---------------------------------|-----------------------------|

   A5          Bb5         B5          C5
e|--------------------------------------------------|
B|--------------------------------------------------|
G|--------------------------------------------------|
D|--7-----------8-----------9----------10\----------|
A|--7-----------8-----------9----------10\----------|
E|--7-----------8-----------9----------10\----------|

e|-----------------------------------------12-13-15-|
B|-13-12-11-10-14-13-12-11-15-14-13-14s15-----------|
G|--------------------------------------------------|
D|--------------------------------------------------|
A|--------------------------------------------------|
E|--------------------------------------------------|

[Solo]
   F5
e|----------------------------------------------|
B|----------------------------------------------|
G|----------------------------------------------|
D|--3-3-3--(3)-3--3-----3-----3--3-(3)--3--3----|
A|--3-3-3--(3)-3--3-----3-----3--3-(3)--3--3----|
E|--3-3-3--(3)-3--3-----3-----3--3-(3)--3--3----|
|
e|-17-----(17)---17-------17--------------------|
B|------------------18-17----17-18-17-----17----|
G|-------------------------------------17----17-|
D|----------------------------------------------|
A|----------------------------------------------|
E|----------------------------------------------|

   C5
e|---------------------------------------------------|
B|---------------------------------------------------|
G|---------------------------------------------------|
D|-10----10-10-(10)-10-10---10---10-10-(10)-10-10----|
A|-10----10-10-(10)-10-10---10---10-10-(10)-10-10----|
E|-10----10-10-(10)-10-10---10---10-10-(10)-10-10----|

e|-20-17---------------------------------------------|
B|-------20-17S==3---1----1--------------------------|
G|----------------------2----------------------------|
D|---------------------------------------5---6--7-8--|
A|---------------------------5-6--7--8---------------|
E|---------------------------------------------------|

   Bb5
e|---------------------------------|
B|---------------------------------|
G|---------------------------------|
D|-8-8-8-(8)-8-8---8-8-8-(8)-8-8---|
A|-8-8-8-(8)-8-8---8-8-8-(8)-8-8---|
E|-8-8-8-(8)-8-8---8-8-8-(8)-8-8---|

e|---------------------------------|
B|---------------------------------|
G|-7-----(7)S====5-9-----(9)---7-9-|
D|---------------------------------|
A|---------------------------------|
E|---------------------------------|

e|---------------------------------------------|
B|---------------------------------------------|
G|---------------------------------------------|
D|--8-8-8--(8)-8-8-----8-----8--8-(8)--8--8----|
A|--8-8-8--(8)-8-8-----8-----8--8-(8)--8--8----|
E|--8-8-8--(8)-8-8-----8-----8--8-(8)--8--8----|

e|------------------------------------------12-|
B|-----------------------10-13-10-----10-13----|
G|-10-----(10)---9-10-13----------13-----------|
D|---------------------------------------------|
A|---------------------------------------------|
E|---------------------------------------------|

   F5
[Gtr 1]
e|-----------------------------------------------|
B|-----------------------------------------------|
G|-----------------------------------------------|
D|---3-3-3--(3)-3---3-----3---3---3--(3)-3---3---|
A|---3-3-3--(3)-3---3-----3---3---3--(3)-3---3---|
E|---3-3-3--(3)-3---3-----3---3---3--(3)-3---3---|

[Gtr 2]
e|-/13-----(13)---(13)\-/13-(13)\---/15----(15)\-|
B|-----------------------------------------------|
G|-----------------------------------------------|
D|-----------------------------------------------|
A|-----------------------------------------------|
E|-----------------------------------------------|

[Gtr 3]
e|-/17-----(17)---(17)\-/17-(17)\---/18----(18)\-|
B|-----------------------------------------------|
G|-----------------------------------------------|
D|-----------------------------------------------|
A|-----------------------------------------------|
E|-----------------------------------------------|

C5
e|-------------------------------------------------|
B|-------------------------------------------------|
G|-------------------------------------------------|
D|--10-10-10-(10)-10--10----10-10-10-(10)-10--10---|
A|--10-10-10-(10)-10--10----10-10-10-(10)-10--10---|
E|--10-10-10-(10)-10--10----10-10-10-(10)-10--10---|

e|-/12-------(12)----(12)\-------------------------|
B|-------------------------/13-------(13)----(13)\-|
G|-------------------------------------------------|
D|-------------------------------------------------|
A|-------------------------------------------------|
E|-------------------------------------------------|

e|-/15-------(15)----(15)\-------------------------|
B|-------------------------/17-------(17)----(17)\-|
G|-------------------------------------------------|
D|-------------------------------------------------|
A|-------------------------------------------------|
E|-------------------------------------------------|

   Bb5
e|-------------------------------------------------|
B|-------------------------------------------------|
G|-------------------------------------------------|
D|--8-----8-8--(8)-8---8----8------8-8--(8)-8---8--|
A|--8-----8-8--(8)-8---8----8------8-8--(8)-8---8--|
E|--8-----8-8--(8)-8---8----8------8-8--(8)-8---8--|

e|-------------------------------------------------|
B|-13b15------(13)r==(13)-(13)b15------(13)r==(13)-|
G|-------------------------------------------------|
D|-------------------------------------------------|
A|-------------------------------------------------|
E|-------------------------------------------------|

e|-12b13------(12)r==(12)-(12)b13------(12)r==(12)-|
B|-------------------------------------------------|
G|-------------------------------------------------|
D|-------------------------------------------------|
A|-------------------------------------------------|
E|-------------------------------------------------|

e|-------------------------------|
B|-------------------------------|
G|-------------------------------|
D|--8--8-8-(8)-8-8-8-8-8-(8)-8-8-|
A|--8--8-8-(8)-8-8-8-8-8-(8)-8-8-|
E|--8--8-8-(8)-8-8-8-8-8-(8)-8-8-|

   ~~~
e|-------------------------------|
B|-------------------------------|
G|-[5]---------------------------|
D|-------------------------------|
A|-------------------------------|
E|-------------------------------|

   ~~~
e|-------------------------------|
B|-[5]---------------------------|
G|-------------------------------|
D|-------------------------------|
A|-------------------------------|
E|-------------------------------|

   G5
[Gtr 1]
e|-----------------------------------------------------|
B|-----------------------------------------------------|
G|-----------------------------------------------------|
D|-5---5-5-(5)-5-5---5-------5---5---(5)---5---5-------|
A|-5---5-5-(5)-5-5---5-------5---5---(5)---5---5-------|
E|-5---5-5-(5)-5-5---5-------5---5---(5)---5---5-------|

[Gtr 2]
e|-----------------------------------------------------|
B|-----------------------------------------------------|
G|-------------------8-7-6-5-8-7-6-5-------------------|
D|----------5--6-7-8------------------8--7-6-5-8-7-6-5-|
A|-5-6-7-8---------------------------------------------|
E|-----------------------------------------------------|

   F5
e|-----------------------------------------------------------|
B|-----------------------------------------------------------|
G|-----------------------------------------------------------|
D|-3---3--3-(3)-3-3-----3--------3---3---(3)---3----3--------|
A|-3---3--3-(3)-3-3-----3--------3---3---(3)---3----3--------|
E|-3---3--3-(3)-3-3-----3--------3---3---(3)---3----3--------|

e|-----------------------------------------------------------|
B|-----------------------------------------------------------|
G|---------------------10-9-8-7-10-9-8-7---------------------|
D|-----------7--8-9-10-------------------10--9-8-7-10-9-8-7--|
A|-7-8-9-10--------------------------------------------------|
E|-----------------------------------------------------------|

   C5
e|-------------------------------------------------------------|
B|-------------------------------------------------------------|
G|-------------------------------------------------------------|
D|-10----10-10-(10)-10-10----10---10-10-(10)----10----10-------|
A|-10----10-10-(10)-10-10----10---10-10-(10)----10----10-------|
E|-10----10-10-(10)-10-10----10---10-10-(10)----10----10-------|

e|-------------------------------------------------------------|
B|---------------------------------------10--11----13-10-11-13-|
G|---------------------------12-9-10-12------------------------|
D|--------------10--11-12-13-----------------------------------|
A|-10-11-12-13-------------------------------------------------|
E|-------------------------------------------------------------|

   Bb5
e|----------------------------------------------------------|
B|----------------------------------------------------------|
G|----------------------------------------------------------|
D|--8--------8----8----(8)----8-----8--------8-8-8-(8)-8-8--|
A|--8--------8----8----(8)----8-----8--------8-8-8-(8)-8-8--|
E|--8--------8----8----(8)----8-----8--------8-8-8-(8)-8-8--|

                                            ~~
e|-10-12-13-12-10-------------------------------------------|
B|------------------13-10--11---13-11-10--------------------|
G|---------------------------------------12-10--------------|
D|----------------------------------------------------------|
A|----------------------------------------------------------|
E|----------------------------------------------------------|

   Bb5
[Gtr 1]
e|---------------------------------------------------|
B|---------------------------------------------------|
G|---------------------------------------------------|
D|--8-----8--8-(8)--8--8-----8-----8--8-(8)--8--8----|
A|--8-----8--8-(8)--8--8-----8-----8--8-(8)--8--8----|
E|--8-----8--8-(8)--8--8-----8-----8--8-(8)--8--8----|

[Gtr 2]
e|-13-12-11-10---------------------------------------|
B|-------------14--13-12-11-10-----------------------|
G|-----------------------------13-12-11-10-----------|
D|------------------------------------------14-13-12-|
A|---------------------------------------------------|
E|---------------------------------------------------|

[Gtr 3]
e|-22-21-20-19---------------------------------------|
B|-------------23--22-21-20--------------------------|
G|--------------------------23-22-21-20--------------|
D|--------------------------------------24--23-22-21-|
A|---------------------------------------------------|
E|---------------------------------------------------|

e|---------------------------------------------------|
B|---------------------------------------------------|
G|---------------------------------------------------|
D|--8-----8--8-(8)--8--8-----8-----8--8-(8)--8--8----|
A|--8-----8--8-(8)--8--8-----8-----8--8-(8)--8--8----|
E|--8-----8--8-(8)--8--8-----8-----8--8-(8)--8--8----|

e|-12-11-10------------------------------------------|
B|----------14-13--12-11-10--------------------------|
G|--------------------------13-12-11-10--------------|
D|--------------------------------------14--13-12-11-|
A|---------------------------------------------------|
E|---------------------------------------------------|

e|-21-20-19-18---------------------------------------|
B|-------------22--21-20-19--------------------------|
G|--------------------------22-21-20-19--------------|
D|--------------------------------------23--22-21-20-|
A|---------------------------------------------------|
E|---------------------------------------------------|

   A5
e|---------------------------------------------------|
B|---------------------------------------------------|
G|---------------------------------------------------|
D|--7-----7--7-(7)--7--7-----7-----7--7-(7)--7--7----|
A|--7-----7--7-(7)--7--7-----7-----7--7-(7)--7--7----|
E|--7-----7--7-(7)--7--7-----7-----7--7-(7)--7--7----|

e|-11-10---------------------------------------------|
B|-------14-13-12--11-10-----------------------------|
G|-----------------------13-12-11-10-----------------|
D|-----------------------------------14-13--12-11-10-|
A|---------------------------------------------------|
E|---------------------------------------------------|

e|-20-19-18-17---------------------------------------|
B|-------------21--20-19-18--------------------------|
G|--------------------------21-20-19-18--------------|
D|--------------------------------------22--21-20-19-|
A|---------------------------------------------------|
E|---------------------------------------------------|

   Db6                       Dbb5
e|-----------------------------------------------------|
B|-----------------------------------------------------|
G|-----------------------------------------------------|
D|-11----11-11-(11)-11-11----11----11-11-(11)-11-11----|
A|-12----12-12-(12)-12-12----10----10-10-(10)-10-10----|
E|-11----11-11-(11)-11-11----11----11-11-(11)-11-11----|

e|-10--------------------------------------------------|
B|----14-13-12--11--10---------------------------------|
G|---------------------13-12-11-10---------------------|
D|---------------------------------14-13--12--11-10--9-|
A|-----------------------------------------------------|
E|-----------------------------------------------------|

e|-19-18-17-16-----------------------------------------|
B|--------------20--19-18-17---------------------------|
G|---------------------------20-19-18-17---------------|
D|----------------------------------------21--20-19-18-|
A|-----------------------------------------------------|
E|-----------------------------------------------------|

[Verse]
                                                      D.S. al Coda
  N.C.         F5           G5          Ab5           G5        F5G5
   PM--------|   PM-------|   PM----|         PM----|   PM----|
e|-------------------------------------|-----------------------------|
B|-------------------------------------|-----------------------------|
G|-------------------------------------|-----------------------------|
D|--------------3------------5---------|---6-----------5---------3-5-|
A|--------------3------------5---------|---6-----------5---------3-5-|
E|--0-----0-0-0-3-0-0---0--0-5-0-0-0-0-|---6---0-0-0-0-5-0-0-0-0-3-5-|

                       ~~~~~~~~~~~~~~~~~~~~~~~
e|-------------------------------------|-----------------------------|
B|-13b15==============(13)-------------|-(13)r-----------------------|
G|-------------------------------------|-----------------------------|
D|-------------------------------------|-----------------------------|
A|-------------------------------------|-----------------------------|
E|-------------------------------------|-----------------------------|

                       ~~~~~~~~~~~~~~~~~~~~~~~
e|-12b13==============(12)-------------|-(12)r-----------------------|
B|-------------------------------------|-----------------------------|
G|-------------------------------------|-----------------------------|
D|-------------------------------------|-----------------------------|
A|-------------------------------------|-----------------------------|
E|-------------------------------------|-----------------------------|


[Interlude]
   &
   D5
(Gtr I)
e|-----------|------------------|-----------------|--------|
B|-----------|------------------|-----------------|--------|
G|-----------|------------------|-----------------|--------|
D|--0--------|--(0)-------------|---0-------------|-(0)----|
A|--0--------|--(0)-------------|---0-------------|-(0)----|
E|--0--------|--(0)-------------|---0-------------|-(0)----|

[Gtr 2]
e|-----------|------------------|-----------------|--------|
B|-----------|------------------|-----------------|--------|
G|-----------|------------------|-----------------|--------|
D|-12--------|-(12)----(12)\----|-/12--------(12)s|=11-----|
A|-----------|------------------|-----------------|--------|
E|-----------|------------------|-----------------|--------|

   D5
e|-----------------|-------------------|-------------|-----------|
B|-----------------|-------------------|-------------|-----------|
G|-----------------|-------------------|-------------|-----------|
D|--0--------------|--(0)--------------|---0---------|--(0)------|
A|--0--------------|--(0)--------------|---0---------|--(0)------|
E|--0--------------|--(0)--------------|---0---------|--(0)------|

         \0.5                \0.5                      \0.5
e|-----------------|-------------------|-------------|-----------|
B|-----------------|-------------------|-------------|-----------|
G|-----------------|-------------------|-------------|-----------|
D|-12----(12)------|-(12)----(12)------|-(12)--------|-(12)------|
A|-----------------|-------------------|-------------|-----------|
E|-----------------|-------------------|-------------|-----------|

  N.C.    F5        G5          Ab5         G5        F5G5
  PM----|   PM----|   PM----|       PM----|   PM----|
e|-----------------------------|---------------------------|
B|-----------------------------|---------------------------|
G|-----------------------------|---------------------------|
D|---------3---------5---------|--6----------5---------3-5-|
A|---------3---------5---------|--6----------5---------3-5-|
E|-0-0-0-0-3-0-0-0-0-5-0-0-0-0-|--6--0-0-0-0-5-0-0-0-0-3-5-|

                                 \4
e|-----------------------------|---------------------------|
B|-----------------------------|---------------------------|
G|-----------------------------|---------------------------|
D|-0---------------------------|-(0)-----------------------|
A|-0---------------------------|-(0)-----------------------|
E|-0---------------------------|-(0)-----------------------|

  N.C.      F5        G5          Ab5         G5        F5G5
   PM-----|   PM----|   PM----|       PM----|   PM----|
e|-------------------------------|------------------------------|
B|-------------------------------|------------------------------|
G|-------------------------------|------------------------------|
D|-----------3---------5---------|--6----------5---------3-5----|
A|-----------3---------5---------|--6----------5---------3-5----|
E|--0--0-0-0-3-0-0-0-0-5-0-0-0-0-|--6--0-0-0-0-5-0-0-0-0-3-5----|

e|-------------------------------|------------------------------|
B|-------------------------------|------------------------------|
G|-------------------------------|------------------------------|
D|-(0)---------------------------|-(0)--------------------------|
A|-(0)---------------------------|-(0)--------------------------|
E|-(0)---------------------------|-(0)--------------------------|

  N.C.    F5        G5          Ab5         G5        F5G5
  PM----|   PM----|   PM----|       PM----|   PM----|
e|-----------------------------|---------------------------|
B|-----------------------------|---------------------------|
G|-----------------------------|---------------------------|
D|---------3---------5---------|--6----------5---------3-5-|
A|---------3---------5---------|--6----------5---------3-5-|
E|-0-0-0-0-3-0-0-0-0-5-0-0-0-0-|--6--0-0-0-0-5-0-0-0-0-3-5-|

e|-----------------------------|---------------------------|
B|-----------------------------|---------------------------|
G|-----------------------------|---------------------------|
D|-0---------------------------|-(0)-----------------------|
A|-0---------------------------|-(0)-----------------------|
E|-0---------------------------|-(0)-----------------------|

  N.C.    F5        G5          Ab5        G5        F5G5
  PM----|   PM----|   PM----|      PM----|   PM----|
e|-----------------------------|-----------------------------|
B|-----------------------------|-----------------------------|
G|-----------------------------|-----------------------------|
D|---------3---------5---------|-6----------5---------3-5----|
A|---------3---------5---------|-6----------5---------3-5----|
E|-0-0-0-0-3-0-0-0-0-5-0-0-0-0-|-6--0-0-0-0-5-0-0-0-0-3-5----|

e|-----------------------------|-----------------------------|
B|-----------------------------|-----------------------------|
G|-----------------------------|-----------------------------|
D|-7---------------------------|-x\--------------------------|
A|-7---------------------------|-x\--------------------------|
E|-7---------------------------|-x\--------------------------|


[Breakdown]
     D5C5F5G5AbG5F5D5    F5G5AbG5F5D5   D5C5F5G5AbG5F5D5    F5G5AbG5F5D5
     Gtrs I, II
e|------------------|----------------|-----------------|------------------|
B|o-----------------|----------------|-----------------|-----------------o|
G|--7-5-------------|----------------|-7-5-------------|------------------|
D|--7-5-3-5-6-5-3-0-|-0-3-5-6-5-3-0--|-7-5-3-5-6-5-3-0-|-0-3-5-6-5-3-0----|
A|o-5-3-3-5-6-5-3-0-|-0-3-5-6-5-3-0--|-5-3-3-5-6-5-3-0-|-0-3-5-6-5-3-0---o|
E|------3-5-6-5-3-0-|-0-3-5-6-5-3-0--|-----3-5-6-5-3-0-|-0-3-5-6-5-3-0----|

     D5 C5 F5 G5 Ab5G5 F5 D5      F5 G5 Ab5G5 F5 D5
[Gtr 1, 2]
e|--------------------------|-----------------------|
B|o-------------------------|-----------------------|
G|---7--5-------------------|-----------------------|
D|---7--5--3--5--6--5--3--0-|--0--3--5--6--5--3--0--|
A|o--5--3--3--5--6--5--3--0-|--0--3--5--6--5--3--0--|
E|---------3--5--6--5--3--0-|--0--3--5--6--5--3--0--|

[Gtr 3]
e|--10----------------------|-----------------------|
B|o----13-------------------|-----------------------|
G|--------10-12-13-12-10----|----10-12-13-12-10-----|
D|-----------------------12-|-12----------------12--|
A|o-------------------------|-----------------------|
E|--------------------------|-----------------------|

   D5 C5 F5 G5 Ab5G5 F5 D5      F5 G5 Ab5G5 F5 D5
e|-------------------------|-------------------------|
B|-------------------------|------------------------o|
G|--7--5-------------------|-------------------------|
D|--7--5--3--5--6--5--3--0-|--0--3--5--6--5--3--0----|
A|--5--3--3--5--6--5--3--0-|--0--3--5--6--5--3--0---o|
E|--------3--5--6--5--3--0-|--0--3--5--6--5--3--0----|

e|-10----------------------|-------------------------|
B|----13-------------------|------------------------o|
G|-------10-12-13-12-10----|----10-12-13-12-10-------|
D|----------------------12-|-12----------------12----|
A|-------------------------|------------------------o|
E|-------------------------|-------------------------|

                         D.S.S. al Dbl. Coda
   Bb5          G5 Ab5A5  Bb5   A5  Bb5 B5  C5
e|------------|---------------|------------------|
B|------------|---------------|------------------|
G|------------|---------------|------------------|
D|--8------8S=|=5--6---7---8--|--7---8---9--10\--|
A|--8------8S=|=5--6---7---8--|--7---8---9--10\--|
E|--8------8S=|=5--6---7---8--|--7---8---9--10\--|

e|------------|---------------|------------------|
B|-11---------|-8--9--10--11--|-10--11--12--13---|
G|------------|---------------|------------------|
D|------------|---------------|------------------|
A|------------|---------------|------------------|
E|------------|---------------|------------------|

[Chorus]
     &&
     A5                                  E5
(Gtr 1)
e|------------------------------------|-----------------------------------|
B|o-----------------------------------|-----------------------------------|
G|------------------------------------|--9--9-9-(9)-9--9--9--9-9-(9)-9--9-|
D|---7--7-7-(7)-7--7--7--7-7-(7)-7--7-|--9--9-9-(9)-9--9--9--9-9-(9)-9--9-|
A|o--7--7-7-(7)-7--7--7--7-7-(7)-7--7-|--7--7-7-(7)-7--7--7--7-7-(7)-7--7-|
E|---7--7-7-(7)-7--7--7--7-7-(7)-7--7-|-----------------------------------|

[Gtr 2]
e|----------------17---------------17-|---------------16---------------16-|
B|o---------17---------------17-------|---------17---------------17-------|
G|-----18---------------18------------|----16---------------16------------|
D|--19---------------19---------------|-18---------------18---------------|
A|o-----------------------------------|-----------------------------------|
E|------------------------------------|-----------------------------------|

   D5
e|-----------------------------------|------------------------------------|
B|-----------------------------------|-----------------------------------o|
G|--7--7-7-(7)-7--7--7--7-7-(7)-7--7-|--7--7-7-(7)-7--7--7--7-7-(7)-7--7--|
D|--7--7-7-(7)-7--7--7--7-7-(7)-7--7-|--7--7-7-(7)-7--7--7--7-7-(7)-7--7--|
A|--5--5-5-(5)-5--5--5--5-5-(5)-5--5-|--5--5-5-(5)-5--5--5--5-5-(5)-5--5-o|
E|-----------------------------------|------------------------------------|

e|---------------14---------------14-|---------------14-14------16--------|
B|---------15---------------15-------|---------15----------15---------17-o|
G|----14---------------14------------|----14------------------------------|
D|-16---------------16---------------|-16---------------------------------|
A|-----------------------------------|-----------------------------------o|
E|-----------------------------------|------------------------------------|

   B5                                  A5
e|-----------------------------------|-----------------------------------|
B|-----------------------------------|-----------------------------------|
G|-----------------------------------|-----------------------------------|
D|--9--9-9-(9)-9--9--9--9-9-(9)-9--9-|--7--7-7-(7)-7--7--7--7-7-(7)-7--7-|
A|--9--9-9-(9)-9--9--9--9-9-(9)-9--9-|--7--7-7-(7)-7--7--7--7-7-(7)-7--7-|
E|--9--9-9-(9)-9--9--9--9-9-(9)-9--9-|--7--7-7-(7)-7--7--7--7-7-(7)-7--7-|

e|---------------19---------------19-|---------------17---------------17-|
B|---------19---------------19-------|---------17---------------17-------|
G|----19---------------19------------|----18---------------18------------|
D|-21---------------21---------------|-19---------------19---------------|
A|-----------------------------------|-----------------------------------|
E|-----------------------------------|-----------------------------------|

   E5                                  D5
e|-----------------------------------|-----------------------------------|
B|-----------------------------------|-----------------------------------|
G|--9--9-9-(9)-9--9--9--9-9-(9)-9--9-|--7--7-7-(7)-7--7--7--7-7-(7)-7--7-|
D|--9--9-9-(9)-9--9--9--9-9-(9)-9--9-|--7--7-7-(7)-7--7--7--7-7-(7)-7--7-|
A|--7--7-7-(7)-7--7--7--7-7-(7)-7--7-|--5--5-5-(5)-5--5--5--5-5-(5)-5--5-|
E|-----------------------------------|-----------------------------------|

e|---------------16---------------16-|---------------14---------------14-|
B|---------17---------------17-------|---------15---------------15-------|
G|----16---------------16------------|----14---------------14------------|
D|-18---------------18---------------|-16---------------16---------------|
A|-----------------------------------|-----------------------------------|
E|-----------------------------------|-----------------------------------|

   A5 D5        G#5D5          F#5D5        E5 D5 C#5D5
e|---------------------------|--------------------------|
B|---------------------------|--------------------------|
G|-14--7-(7)--7-13--7-(7)--7-|-11--7-(7)--7--9--7--6--7-|
D|-14--7-(7)--7-13--7-(7)--7-|-11--7-(7)--7--9--7--6--7-|
A|-12--5-(5)--5-11--5-(5)--5-|--9--5-(5)--5--7--5--4--5-|
E|---------------------------|--------------------------|

e|-17-----------16-----------|-14-----------------------|
B|----15-----15----15-----15-|----15-----15-17-15-14-15-|
G|-------14-----------14-----|-------14-----------------|
D|---------------------------|--------------------------|
A|---------------------------|--------------------------|
E|---------------------------|--------------------------|

   C#5          F6
e|----------------------------|------------------------------|
B|----------------------------|------------------------------|
G|--6--6-(6)--6-10-10-(10)-10-|-10-10-(10)-10-10-10-(10)-10--|
D|--6--6-(6)--6-11-11-(11)-11-|-11-11-(11)-11-11-11-(11)-11--|
A|--4--4-(4)--4--8--8--(8)--8-|--8--8--(8)--8--8--8--(8)--8--|
E|----------------------------|------------------------------|

e|-16-----------14------------|-13---------------------------|
B|----14-----14----14------14-|----14------14-15-14----------|
G|-------13------------13-----|--------13------------13------|
D|----------------------------|--------------------------15--|
A|----------------------------|------------------------------|
E|----------------------------|------------------------------|


[Outro]
   Moderately Slow Rock Q.=55
   F#5                       D5
  9/8
[Gtr 1]
e|------------------------|----------------------|
B|------------------------|----------------------|
G|------------------------|--7----7--7--7--7---7-|
D|--4---4--4--4--4--4---4-|--7----7--7--7--7---7-|
A|--4---4--4--4--4--4---4-|--5----5--5--5--5---5-|
E|--4---4--4--4--4--4---4-|----------------------|

[Gtr 2]
   ~~              ~~        ~~            ~~
e|------------------------|----------------------|
B|--7---7--6--7--9-10---5-|--6----6--5--6--8--/6-|
G|------------------------|----------------------|
D|------------------------|----------------------|
A|------------------------|----------------------|
E|------------------------|----------------------|

[Gtr 4]
e|------------------------|----------------------|
B|-19--19-18-19-21-22--17-|-18---18-17-18-20--18-|
G|------------------------|----------------------|
D|-16--16-15-16-18-19--14-|-15---15-14-15-17--15-|
A|------------------------|----------------------|
E|------------------------|----------------------|

   Db5                    C5
                         6/8
e|----------------------|------------------|
B|----------------------|------------------|
G|--6----6--6--6--6---6-|--5------5--5--5--|
D|--6----6--6--6--6---6-|--5------5--5--5--|
A|--4----4--4--4--4---4-|--3------3--3--3--|
E|----------------------|------------------|

 |  ~~            ~~       ~~
e|----------------------|------------------|
B|--6----6--5--6--8--/6-|--6---6--5--6--8--|
G|----------------------|------------------|
D|----------------------|------------------|
A|----------------------|------------------|
E|----------------------|------------------|

e|----------------------|------------------|
B|-18---18-17-18-20--18-|-18--18-17-18-20--|
G|----------------------|------------------|
D|-15---15-14-15-17--15-|-15--15-14-15-17--|
A|----------------------|------------------|
E|----------------------|------------------|

   F5                            Db5
e|-----------------------------|--------------------------|
B|-----------------------------|--------------------------|
G|-----------------------------|---6-6-6---6---6--6--6--6-|
D|--3-3-3--3---3--3-3-3--3---3-|---6-6-6---6---6--6--6--6-|
A|--3-3-3--3---3--3-3-3--3---3-|---4-4-4---4---4--4--4--4-|
E|--3-3-3--3---3--3-3-3--3---3-|--------------------------|

   ~~            ~~               ~~~
e|-----------------------------|--------------------------|
B|-/9-----(9)\---/9-----(9)\---|-/11-----(11)\----9-11-13-|
G|-----------------------------|--------------------------|
D|-----------------------------|--------------------------|
A|-----------------------------|--------------------------|
E|-----------------------------|--------------------------|

e|-16------------16------------|--18-------------16-18-20-|
B|-----------------------------|--------------------------|
G|-13------------13------------|--15-------------13-15-17-|
D|-----------------------------|--------------------------|
A|-----------------------------|--------------------------|
E|-----------------------------|--------------------------|

   Bb5
e|---------------------------------|
B|---------------------------------|
G|---3-3-3---3---3---3-3-3---3---3-|
D|---3-3-3---3---3---3-3-3---3---3-|
A|---1-1-1---1---1---1-1-1---1---1-|
E|---------------------------------|
 |   ~~~             ~~~
e|---------------------------------|
B|-/14-----(14)\---/14-----(14)\---|
G|---------------------------------|
D|---------------------------------|
A|---------------------------------|
E|---------------------------------|

e|--21--------------21-------------|
B|---------------------------------|
G|--18--------------18-------------|
D|---------------------------------|
A|---------------------------------|
E|---------------------------------|

   A5
e|-----------------|------------|----------|--------*|
B|-----------------|------------|----------|--------*|
G|--2--------------|--(2)-------|-(2)------|-(2)----*|
D|--2--------------|--(2)-------|-(2)------|-(2)----*|
A|--0--------------|--(0)-------|-(0)------|-(0)----*|
E|-----------------|------------|----------|--------*|
                     >
           ~~~~~~~~~~~~~
e|-----------------|------------|----------|--------*|
B|-16b17====(16)---|-(16)r------|----------|--------*|
G|-----------------|------------|----------|--------*|
D|-----------------|------------|----------|--------*|
A|-----------------|------------|----------|--------*|
E|-----------------|------------|----------|--------*|

e|-21--------------|-(21)-------|----------|--------*|
B|-----------------|------------|----------|--------*|
G|-18--------------|-(18)-------|----------|--------*|
D|-----------------|------------|----------|--------*|
A|-----------------|------------|----------|--------*|
E|-----------------|------------|----------|--------*|


************************************

| /    Slide up
| ~    Vibrato
| (n)  Ghost note
| b    Bend
| PM   Palm mute
| \    Slide down
| [n]  Artificial harmonic
| *    Natural harmonic

************************************
Suggest correction
comments
print report bad tab
35 comments total. Showing first comments.
0 reply
Merkava Mk3 20 Jun 07, 2005 12:00 AM

Good Tab but please next time use fewer pages than 19. Too many to print off.

0 reply
Mathamology 578 Jul 11, 2005 12:00 AM

beltin'... yep.

0 reply
kiefermatot 10,367 Sep 28, 2005 04:12 PM

Hey, i wanna tab out the whole City of Evil album and i was wondering if i could use your tab in it

guest
You may want to rate the tab now too:
select rating
Wanna post a correction for this tab? Suggest correction