Oops, an error
Loading. Please wait.

Beast And The Harlot Bass Tab

version 4
54,963 views 15 this week
6 commentsread comments
1 2 3 4 5
accurate
x 35
add to favorites
launch autoscroll
font size
0
reset
guitar tuner
Autoscroll
slow
fast
+/-
esc
set tempo
stop
Help us to improve Ultimate-Guitar.com Take our survey!
×
Difficulty
Tuning
intermediate
D A D G B E
Intro
|--------------------------------------------------------------------|
|--4~----------------0-2-3~------------------------------------------|
|------5~--4~--3~--3---------4~--1~--0~------------------------------|
|--------------------------------------------0~------------0~--------|


Verse
|--------------------------|---------------------------|
|--------------------------|---------------------------|
|--------------------------|---------------------------|
|00-3-00-5-00-6-00-5-00-35-|00-3-00-5-0-6-00-3-00-5-0-6|

    
|--------------------------|---------------------------|
|--------------------------|---------------------------|
|--------------------------|---------------------------|
|00-3-00-5-00-6-00-5-00-35-|00-3-00-5-0-6-00-3-00-3-0-3|

|--------------------------|---------------------------|
|--------------------------|---------------------------|
|--------------------------|---------------------------|
|00-3-00-5-00-6-00-5-00-35-|00-3-00-5-0-6-00-3-00-5-0-6|

    
|--------------------------|-----------------------------------------|
|--------------------------|-----------------------------------------|
|--------------------------|-----------------------------------------|
|00-3-00-5-00-6-00-5-00-35-|00-3-00-5-0-6-00-3-00-3-0-3/8-8\5-5-6-7-8|


|--------------------------|---------------------------|
|--------------------------|---------------------------|
|--------------------------|---------------------------|
|00-3-00-5-00-6-00-5-00-35-|00-3-00-5-0-6-00-3-00-5-0-6|

    
|--------------------------|--------------------------------------------------|
|--------------------------|--------------------------------------------------|
|--------------------------|--------------------------------------------------|
|00-3-00-5-00-6-00-5-00-35-|00-3-00-5-0-6-00-3-00-3-0-3/8-8\5-5-6-7-8 6-7-8-9-|


Chorus
|-------------------------------------------|
|-------------------------------------5-3-2-|
|-----------3333-3333--1111-1111-1111-------|
|-3333-3333---------------------------------|


|-----------------------------------------|
|-----------------------------------------|
|-----------3333-3333-1111-1111-1111-1111-|
|-3333-3333-------------------------------|


|-----------------------------------------|
|-----------------------------------------|
|---------------------3333-3333-1111-1111-|
|-5555-5555-3333-3333---------------------|


|----------------------------------------|
|-3----2----0-------------------532------|
|--111--111--111-3101-0000-4444----532---|
|-------------------------------------53-|


Verse
|--------------------------|--------------------------------------------------|
|--------------------------|--------------------------------------------------|
|--------------------------|--------------------------------------------------|
|00-3-00-5-00-6-00-5-00-35-|00-3-00-5-0-6-00-3-00-3-0-3/8-8\5-5-6-7-8 6-7-8-9-|


Chorus (Variation)
|-------------------------------------------|
|-------------------------------------------|
|-----------3333-3333--1111-1111-1111-1111--|
|-3333-3333---------------------------------|


|-----------------------------------------|
|-----------------------------------------|
|-----------3333-3333-1111-1111-1111-1111-|
|-3333-3333-------------------------------|


|-----------------------------------------|
|-----------------------------------------|
|---------------------3333-3333-1111-1111-|
|-5555-5555-3333-3333---------------------|


|------------------------------------------------|
|------------------------------------------------|
|-1111-1111-1111-1111-1111-0000-0000-4444-4444---|
|----------------------------------------------0-|


Verse
|--------------------------|---------------------------|
|--------------------------|---------------------------|
|--------------------------|---------------------------|
|00-3-00-5-00-6-00-5-00-35-|00-3-00-5-0-6-00-3-00-5-0-6|

    
|--------------------------|-----------------------------------------|
|--------------------------|-----------------------------------------|
|--------------------------|-----------------------------------------|
|00-3-00-5-00-6-00-5-00-35-|00-3-00-5-0-6-00-3-00-3-0-3/8-8\5-5-6-7-8|


|--------------------------|---------------------------|
|--------------------------|---------------------------|
|--------------------------|---------------------------|
|00-3-00-5-00-6-00-5-00-35-|00-3-00-5-0-6-00-3-00-5-0-6|

    
|--------------------------|--------------------------------------------------|
|--------------------------|--------------------------------------------------|
|--------------------------|--------------------------------------------------|
|00-3-00-5-00-6-00-5-00-35-|00-3-00-5-0-6-00-3-00-3-0-3/8-8\5-5-6-7-8 6-7-8-9-|


Chorus
|-------------------------------------------|
|-------------------------------------5-3-2-|
|-----------3333-3333--1111-1111-1111-------|
|-3333-3333---------------------------------|


|-----------------------------------------|
|-----------------------------------------|
|-----------3333-3333-1111-1111-1111-1111-|
|-3333-3333-------------------------------|


|-----------------------------------------|
|-----------------------------------------|
|---------------------3333-3333-1111-1111-|
|-5555-5555-3333-3333---------------------|


|-----------------------------------------|
|-3----2----0-------------------532-------|
|--111--111--111-3101-0000-4444----532----|
|-------------------------------------50~-|


|--------------------------------|
|--------------------------------|
|--------------------------------|
|-0~---0~---0~---0~------0~---0~-|


|--------------------------------|
|--------------------------------| X8
|-5----------------5-------------|
|---0-3-5-6-5-3-0----0-3-5-6-3-0-|


|---------------------|
|---------------------|
|---------------------|
|-8~--5-6-7-8-6-7-8-9-|


Chorus
|-------------------------------------------|
|-------------------------------------5-3-2-|
|-----------3333-3333--1111-1111-1111-------|
|-3333-3333---------------------------------|


|-----------------------------------------|
|-----------------------------------------|
|-----------3333-3333-1111-1111-1111-1111-|
|-3333-3333-------------------------------|


|-----------------------------------------|
|-----------------------------------------|
|---------------------3333-3333-1111-1111-|
|-5555-5555-3333-3333---------------------|


|----------------------------------------|
|-3----2----0-------------------532------|
|--111--111--111-3101-0000-4444----532---|
|-------------------------------------53-|


Chorus (Up one key)
|------------------------------------------|
|-----------0000-0000----------------7-5-4-|
|---------------------3333-3333-3333-------|
|-5555-5555--------------------------------|


|-----------------------------------------|
|-----------0000-0000---------------------|
|---------------------3333-3333-3333-3333-|
|-5555-5555-------------------------------|

|----------------------------------------|
|--------------------0000-0000-----------|
|-0000-0000--------------------3333-3333-|
|-----------5555-5555--------------------|


|---------------------------------|
|-5----4----3---------------------|
|--333--333--333-5323-1~-2~-3~-4~-|
|---------------------------------|


Outro
|---------------------------------------|
|--4~----------------0-2-3~-------------|
|------5~--4~--3~--3---------4~--1~--0~-|
|---------------------------------------|


email me if you have any corrections at darksamus111@yahoo.com
comments
print report bad tab
6 comments total. Showing first comments.
+3 reply
darkmts 264 wrote on July 3 2008, 08:38 pm

it is good... except for the last part... where it goes up a key.... it doesn't sound right...it might be my tuning, but i'm pretty sure that those are the wrong notes.. right rhythm but wrong notes. i think it goes up to 7 on the lower D string then 7 on A then 5 on A. its pretty simple from there. but otherwise, this tab is flawless!

0 reply
Rocculte 18 wrote on February 21 2009, 04:28 pm

no you're right dude

ya. just rewrite the key change up two more frets. it's all perfect besides that. great job

-1 reply
nate_dogg083 105 wrote on March 26 2009, 12:41 am

the middle breakdown part is actually

|-----------------------------|
|-----------------------------| X8
|-5-3-------------------------|
|-----3-5-6-5-3-0-0-3-5-6-3-0-|

and the end chorus is up 2 steps not 1 like the guys above me said...other than that its perfect

I want to post or [tab]
guest
You may want to rate the tab now too:
select rating
Please do not post tabs as comments. Select "correction" instead!