Oops, an error
Loading. Please wait.

Beast And The Harlot Bass Tab

version 4
7,549 views 6 this week
1 commentread comment
1 2 3 4 5
x 5
add to favorites
launch autoscroll
font size
0
reset
guitar tuner
backing track
0:00
0:00
×
Best way to learn
"Beast And The Harlot"
Autoscroll
slow
fast
+/-
esc
set tempo
stop
Author
Difficulty
Tuning
  follow
intermediate
D A D G
Beast and the Harlot (Bassline)
Artist: Avenged Sevenfold
Drop D Tuning

Tabbed by Trevor Long
Email: spirehunter@gmail.com
This is my first tab, so there are probably some mistakes. However, I used Guitar Hero 
bassline to tab it, so it is a very accurate version.
This song is a lot easier to play with a pick than with your fingers. It also sounds 
in my opinion.

Intro
G|-----------------------------------------------|
D|-----------------------------------------------|
A|-9~9-9-9-9-9~9-5~5-5-5-5~5-4~4-4-4-4~4-3~3-5-7-|
D|-----------------------------------------------|

G|------------------------------------------|
D|------------------------------------------|
A|-8-88888-88884-44444-4-4-3-1-11111-11110~-|
D|------------------------------------------|

G|-------------------------------------------------|
D|----------------------------00000000000000000000-|
A|-------------------------------------------------|
D|-0~-------0~--------0~---------------------------|

G|------------------------------------------------------------|
D|------------------------------------------------------------|
A|------------------------------------------------------------|
D|-0-0-3-0-0-5-0-0-6-0-0-5-0-0-35-0-0-3-0-0-506-0-0-3-0-0-506-|

G|------------------------------------------------------------|
D|------------------------------------------------------------|
A|------------------------------------------------------------|
D|-0-0-3-0-0-5-0-0-6-0-0-5-0-0-35-0-0-3-0-0-506-0-0-3-0-0-303-|

G|------------------------------------------------------------|
D|------------------------------------------------------------|
A|------------------------------------------------------------|
D|-0-0-3-0-0-5-0-0-6-0-0-5-0-0-35-0-0-3-0-0-506-0-0-3-0-0-506-|x2
                                                         (303)
G|------------|
D|------------|
A|------------|
D|-8~-5-6-7-8-|

G|------------------------------------------------------------|
D|------------------------------------------------------------|
A|------------------------------------------------------------|
D|-0-0-3-0-0-5-0-0-6-0-0-5-0-0-35-0-0-3-0-0-506-0-0-3-0-0-506-|x2
                                                         (303)
G|---------------------|
D|---------------------|
A|---------------------|
D|-8~-5-6-7-8-7-8-9-10-|

Chorus
G|---------------------------------------------------------------|
D|---------------------------------------------------------5-3-2-|
A|-----------------3-33-33-3-33-33-1-11-11-1-11-11-0-11-11-------|
D|-3-33-33-3-33-33-----------------------------------------------|

G|-------------------------------------------------------------------|
D|-------------------------------------------------------------------|
A|-----------------3-33-33-3-33-33-1-11-11-1-11-11-1-11-11-1-1-1-1---|
D|-3-33-33-3-33-33---------------------------------------------------|

G|-----------------------------------------------------------------|
D|-----------------------------------------------------------------|
A|---------------------------------3-33-33-3-33-33-1-11-11-1-11-11-|
D|-5-55-55-5-55-55-3-33-33-3-33-33---------------------------------|

G|------------------------------------------------------------------|
D|-3-------2-------0-------------------------------0-5-3-2-0--------|
A|---11-11---11-11—--11-11-3-1-0-1-0-00-00-4-44-44----------0-5-3-2-|
D|------------------------------------------------------------------|

Solo
G|------------------------------------------------------------|
D|------------------------------------------------------------|
A|------------------------------------------------------------|
D|-0-0-3-0-0-5-0-0-6-0-0-5-0-0-35-0-0-3-0-0-506-0-0-3-0-0-303-|

G|---------------------|
D|---------------------|
A|---------------------|
D|-8~-5-6-7-8-7-8-9-10-|

G|-------------------------------------------------------------------|
D|-------------------------------------------------------------------|
A|-----------------3-33-33-3-33-33-1-11-11-1-11-11-1-11-11-1-1-1-1---|
D|-3-33-33-3-33-33---------------------------------------------------|x2

G|-----------------------------------------------------------------|
D|-----------------------------------------------------------------|
A|---------------------------------3-33-33-3-33-33-1-11-11-1-11-11-|
D|-5-55-55-5-55-55-3-33-33-3-33-33—--------------------------------|

G|--------------------------------|
D|--------------------------------|
A|--------------------------------|
D|1-11-11-1-11-11-0-00-00-4---7---|

G|------------------------------------------------------------|
D|------------------------------------------------------------|
A|------------------------------------------------------------|
D|-0-0-3-0-0-5-0-0-6-0-0-5-0-0-35-0-0-3-0-0-506-0-0-3-0-0-506-|x2
                                                         (303)
G|------------|
D|------------|
A|------------|
D|-8~-5-6-7-8-|


G|------------------------------------------------------------|
D|------------------------------------------------------------|
A|------------------------------------------------------------|
D|-0-0-3-0-0-5-0-0-6-0-0-5-0-0-35-0-0-3-0-0-506-0-0-3-0-0-506-|x2
                                                         (303)
G|---------------------|
D|---------------------|
A|---------------------|
D|-8~-5-6-7-8-7-8-9-10-|


G|---------------------------------------------------------------|
D|---------------------------------------------------------5-3-2-|
A|-----------------3-33-33-3-33-33-1-11-11-1-11-11-0-11-11-------|
D|-3-33-33-3-33-33-----------------------------------------------|

G|-------------------------------------------------------------------|
D|-------------------------------------------------------------------|
A|-----------------3-33-33-3-33-33-1-11-11-1-11-11-1-11-11-1-1-1-1---|
D|-3-33-33-3-33-33---------------------------------------------------|

G|-----------------------------------------------------------------|
D|-----------------------------------------------------------------|
A|---------------------------------3-33-33-3-33-33-1-11-11-1-11-11-|
D|-5-55-55-5-55-55-3-33-33-3-33-33---------------------------------|

G|------------------------------------------------------------------|
D|-3-------2-------0-------------------------------0-5-3-2-0--------|
A|---11-11---11-11—--11-11-3-1-0-1-0-00-00-4-44-44----------0-5-3-2-|
D|------------------------------------------------------------------|

G|--------------------------------------------|
D|--------------------------------------------|
A|--------------------------------------------|
D|-0~--------0~----------0~----------0~-------|

p.m.
G|--------------------------------|
D|--------------------------------|
A|--------------------------------|
D|-0-0-3-0-0-5-0-0-6-0-0-5-0-0-35-|x4

G|------------------|
D|------------------|
A|-53---------------|
D|---3565300356530~-|x8

G|---------------------|
D|---------------------|
A|---------------------|
D|-8~-5-6-7-8-7-8-9-10-|

G|---------------------------------------------------------------|
D|---------------------------------------------------------5-3-2-|
A|-----------------3-33-33-3-33-33-1-11-11-1-11-11-0-11-11-------|
D|-3-33-33-3-33-33-----------------------------------------------|

G|-------------------------------------------------------------------|
D|-------------------------------------------------------------------|
A|-----------------3-33-33-3-33-33-1-11-11-1-11-11-1-11-11-1-1-1-1---|
D|-3-33-33-3-33-33---------------------------------------------------|

G|-----------------------------------------------------------------|
D|-----------------------------------------------------------------|
A|---------------------------------3-33-33-3-33-33-1-11-11-1-11-11-|
D|-5-55-55-5-55-55-3-33-33-3-33-33---------------------------------|


G|------------------------------------------------------------------|
D|-3-------2-------0-------------------------------0-5-3-2-0--------|
A|---11-11---11-11—--11-11-3-1-0-1-0-00-00-4-44-44----------0-5-3-2-|
D|------------------------------------------------------------------|

G|-----------------------------------------------[-2-1-2-3-4-2-1-]-|
D|-----------------2-22-22-2-22-22-0-00-00-0-00-00-7-6-7-8-9-8-6---|
A|-0-00-00-0-00-00-------------------------------------------------|
D|-----------------------------------------------------------------|

G|----------------------------------------------------------------|
D|----------------2-22-22-2-22-22-0-00-00-0-00-00-0-00-00-0-0-0-0-|
A|-0-00-00-0-00-00------------------------------------------------|
D|----------------------------------------------------------------|

G|-----------------------------------------------------------------|
D|---------------------------------2-22-22-2-22-22-0-00-00-0-00-00-|
A|-2-22-22-2-22-22-0-00-00-0-00-00---------------------------------|
D|-----------------------------------------------------------------|

G|-4------4------4------4------------------------------------|
D|---2-22---2-22---2-22---2-4-2-0-00-00-4-44-44-6-66-66-/11--|
A|-----------------------------------------------------------|
D|-----------------------------------------------------------|

G|-----------------------------------------------|
D|-----------------------------------------------|
A|-9~9-9-9-9-9~9-5~5-5-5-5~5-4~4-4-4-4~4-3~3-5-7-|
D|-----------------------------------------------|

                                               Optional Pick slide
G|------------------------------------------|-----------------------------|
D|------------------------------------------|------------------*********X-|
A|-8-88888-88884-44444-4-4-3-1-11111-11110~-|-*****************-----------|
D|------------------------------------------|-----------------------------|


Tab Key
/: slide up
\: slide down
(-#-#-#-): second time only
[-#-#-#-]: octaves
p.m.: palm mute
x#: number of times played
Suggest correction
comments
print report bad tab
1 comment total.
0 reply
SinkingNJ 10 Jun 04, 2010 02:09 PM

Very easy to read, learned about 90% of it in about ten minutes.

guest
You may want to rate the tab now too:
select rating
Wanna post a correction for this tab? Suggest correction