Oops, an error
Loading. Please wait.

Betrayed Tab

version 2
version 2

Whole song

83,884 views 129 this week
35 commentsread comments
1 2 3 4 5
excellent!
x 47
add to favorites
launch autoscroll
font size
0
reset
how to read this tab
guitar tuner
Autoscroll
slow
fast
+/-
esc
set tempo
stop
Help us to improve Ultimate-Guitar.com Take our survey!
×
Author
Difficulty
Tuning
intermediate
D A D G B E
How come nobody was tabed the whole song yet?
This is the whole song!

Hello! This is a more updated version of the tab I put out a while ago. It'll have more 
the small details in it like...
-Chorus chords changed
-pm's in right places
-intro more understandable

Tuning: Drop D

All acoustic guitars are in standard!


[Intro]

E|------------------|-----------------|-------------------|
B|------------------|-----------------|-------------------|
G|------------------|-----------------|-------------------|
D|------------------|-----3---3/7\3-0-|-----2---5p3p2p0---|
A|-----6---5---5tr6-|---5---5---------|---4---4---------4-|
D|-5-8---8---8------|-3---------------|-2-----------------|
pm  .   .   .

E|---------------------------------------------------------|x2 but on 2nd time, switch the first 5 and the
B|-----------------|   first 8 around (|-----6---5---5tr6--|
G|-----------------|                  (|-8-5---8---8-------|
D|-------3-2-----------------------------------------------|
A|-----3-------5-3-----------------------------------------|
D|-0-2-------4---------------------------------------------|
pm. .


[Chorus]

E|---------|---------|---------|---------|---------|---------|---------|
B|---------|---------|---------|---------|---------|---------|---------|
G|---------|---------|---------|---------|---------|---------|---------|
D|-0-2-3-8-|-8-8-8-8-|-8-7-5-5-|-5-5-5-5-|-0-2-3-3-|-3-3-3-3-|-8-7-5-5-|
A|-0-3-3-8-|-8-8-8-8-|-5-3-3-3-|-3-3-3-3-|-0-3-3-3-|-3-3-3-3-|-5-3-3-3-|
D|-0-2-3-8-|-8-8-8-8-|-5-3-2-2-|-2-2-2-2-|-0-2-3-3-|-3-3-3-3-|-5-3-2-2-|

E|---------|-------------|------------|--------------|-------------|
B|---------|o------------|------------|--------------|------------o|
G|---------|-------------|------------|--------------|-5-----------|
D|-5-5-5-5-|--3-3---2-22-|-3-2---3-33-|--8--8---7-77-|---5---3-33--|
A|-3-3-3-3-|o-5-5-0-3-33-|-1-1-0-3-33-|-10-10-0-8-88-|-----7-5-55-o|
D|-2-2-2-2-|------0------|-----0-3-33-|-------0------|-------------|
pm               .            .              .


[Verse]

(w/ fingers)

E|-----------------|-----------------|-----------------|-----------------|x3
B|-------3---------|-------3---------|-----------------|-------------3---|
G|-----3-----3-----|-----2-----2-----|-------3---------|---------2-----2-|
D|---0---------0---|---0---------0---|-----5-----5-----|-3---5-----0-----|
A|-----------------|-----------------|---4---------4---|---0---0---------|
D|-5-------5-----5-|-3-------3-----3-|-2-------2-----2-|-0---2---3---4---|

E|-----------------|-----------------|-----------------|---------------|
B|-------3---------|-------3---------|-----------------|---------------|
G|-----3-----3-----|-----2-----2-----|-------3---------|---------2/6---|
D|---0---------0---|---0---------0---|-----5-----5-----|-3---5---------|
A|-----------------|-----------------|---4---------4---|---0---0-----7-|
D|-5-------5-----5-|-3-------3-----3-|-2-------2-----2-|-0---2---3/7---|
                

[Verse Interlude]

E|-----------------|----------------|--|-----|--|-----|--|-----|------|
B|-----------------|----------------|--|-----|--|-----|--|-----|------|
G|-7-----7-----7---|-6~~~~~6/-------|--|-----|--|-----|--|-----|------|
D|-----------------|------------0-0-|~~|~~0-0|~~|~~0-0|~~|~~0-0|~~5-3~|
A|---7-----7---7---|-7~~~~~7/---0-0-|~~|~~0-0|~~|~~0-0|~~|~~0-0|~~3-3~|
D|-7---7-----7---7-|-7~~~~~7/---0-0-|~~|~~0-0|~~|~~0-0|~~|~~0-0|~~2-3~|
pm                             .         .        .        .
                           Dist^
  2/4  4/4      >
|------|------|----|
|------|------|----|
|------|------|----|
|~12~--|~~7-7~|~~~~|
|~-7--~|~~7-7~|~~~~|
|~-7--~|~~7-7~|~~~~|


[Interlude]

 Guitar 1
E|--------------------|------------------|-------------------|
B|-6/13-13-13\10-10\8-|-8-8-8---8-8^-(8)\|6/13-13-13\10-10\8-|
G|--------------------|-------9----------|-------------------|
D|--------------------|------------------|-------------------|
A|--------------------|------------------|-------------------|
D|--------------------|------------------|-------------------|

E|----------------------|
B|-8/17-17-17-17^-(17)/-|
G|----------------------|
D|----------------------|
A|----------------------|
D|----------------------|

E|--------------------|------------------|-------------------|
B|-6/13-13-13\10-10\8-|-8-8-8---8-8^-(8)\|6/13-13-13\10-10\8-|
G|--------------------|-------9----------|-------------------|
D|--------------------|------------------|-------------------|
A|--------------------|------------------|-------------------|
D|--------------------|------------------|-------------------|

E|------------------|
B|-8-8-8/10-10-8-10-|
G|------------------|
D|------------------|
A|------------------|
D|------------------|

 Guitar2
E|-1-------1---1-|-0------0---0-|-1-------1---1-|-0-----0-----0-|
B|----3--------3-|---3--------3-|----3--------3-|---3-----3-----|
G|-------2-----2-|------0-----0-|-------2-----2-|-----0-----0---|
D|-0-------0---0-|--------------|-0-------0---0-|---------------|
A|---------------|-3------3---3-|---------------|-3-----3-----3-|
D|---------------|--------------|---------------|---------------|

E|-1-------1---1-|-0------0---0-|-1-------1---1-|-0-----2-----|
B|----3--------3-|---3--------3-|----3--------3-|---3-----3---|
G|-------2-----2-|------0-----0-|-------2-----2-|-----0-----2-|
D|-0-------0---0-|--------------|-0-------0---0-|-------0-----|
A|---------------|-3------3---3-|---------------|-3-----------|
D|---------------|--------------|---------------|-------------|


[Verse]

(Same as last w/ intro riff)


[Chorus]

(Same as last)


[Interlude 2]

E|------------------------------|------------------------------||
B|------------------------------|------------------------------||
G|------------------------------|------------------------------||
D|---------------3-3-3-3--------|---------------5-5-5-5--------||
A|--------0-0-0-0-------0-0-0-0-|--------3-3-3-3-------3-3-3-3-||
D|-0-0-0-0----------------------|-2-2-2-2----------------------||
pm. . . . . . . . . . . . . .  . . . . . . . . . . . . . . . .

E|------------------------------|-----------------------------|
B|------------------------------|-----------------------------|
G|------------------------------|-----------------------------|
D|---------------7-7-7-7--------|---------------8-8-8-8-------|
A|--------5-5-5-5-------5-5-5-5-|--------5-5-5-5-------5-5-5-5|
D|-4-4-4-4----------------------|-5-5-5-5---------------------|
 . . . . . . . . . . . . . . . . . . . . . . . . . . . . . .

 (those are 10's, 12's, 14's and 15's)
E|----------------------------------|-------------------------------------------------|
B|----------------------------------|-------------------------------------------------|
G|----------------------------------|-------------------------------------------------|
D|---------------12-12-12-12--------|-------------------------14-14-14-14-------------|
A|--------8-8-8-8-----------8-8-8-8-|-------------10-10-10-10-------------10-10-10-10-|
D|-8-8-8-8--------------------------|-10-10-10-10-------------------------------------|
pm.......................................................

E|-------------------------------------------------|-------------------------|
B|-------------------------------------------------|-------------------------|
G|-------------------------------------------------|-------------------------|
D|-------------------------15-15-15-15-------------|-16-16-16-16-16-16-16-16-|
A|-------------12-12-12-12-------------12-12-12-12-|-17-17-17-17-17-17-17-17-|
D|-12-12-12-12-------------------------------------|-16-16-16-16-16-16-16-16-|
pm................


[Bridge]

E|-------------------------|-------------------------|
B|-------------------------|-------------------------|
G|-15-15-15-15-15-15-15-15-|-14-14-14-14-14-14-14-14-|
D|-x--x--x--x--x--x--x--x--|-x--x--x--x--x--x--x--x--|
A|-13-13-13-13-13-13-13-13-|-12-12-12-12-12-12-12-12-|
D|-------------------------|-------------------------|

E|-----------------------|-----------------|x4
B|-----------------------|-----------------|
G|-12-12-12-12----9-10-9-|-7-7-7-7-7-7-7-7-|
D|-x--x--x--x-----x-x--x-|-x-x-x-x-x-x-x-x-|
A|-10-10-10-10----7-8--7-|-5-5-5-5-5-5-5-5-|
D|-----------------------|-----------------|

E|-----------------|-----------------|-----------------|-----------------|
B|-----------------|-----------------|-----------------|-----------------|
G|-3-3-3-3-3-3-3-3-|-3-3-3-3-3-3-3-3-|-5-5-5-5-5-5-5-5-|-5-5-5-5-5-5-5-5-|
D|-3-3-3-3-3-3-3-3-|-3-3-3-3-3-3-3-3-|-5-5-5-5-5-5-5-5-|-5-5-5-5-5-5-5-5-|
A|-1-1-1-1-1-1-1-1-|-1-1-1-1-1-1-1-1-|-3-3-3-3-3-3-3-3-|-3-3-3-3-3-3-3-3-|
D|-----------------|-----------------|-----------------|-----------------|


[Solo]

E|-10-10/12-12\10-10/15-|-15\14-14\12-12\10-10/12-|-12\8----8---8/12\8-|
B|----------------------|-------------------------|--------------------|
G|----------------------|-------------------------|--------------------|
D|----------------------|-------------------------|--------------------|
A|----------------------|-------------------------|--------------------|
D|----------------------|-------------------------|--------------------|

E|-(8)-8-8\7-7h8p7-5---|---10-10/12-12\10-10/15-|-15\14-14/15-15/17-17/20-|
B|-------------------8-|-7----------------------|-------------------------|
G|---------------------|------------------------|-------------------------|
D|---------------------|------------------------|-------------------------|
A|---------------------|------------------------|-------------------------|
D|---------------------|------------------------|-------------------------|
                       Keep Holding Bend

E|-20tr-----20-17------|-------20-----------------|-----------------------|
B|-----------------20^-|-(20^)----(20^)~~~~~(20)\-|-----15^-------(15^)tr-|
G|---------------------|--------------------------|---x-------------------|
D|---------------------|--------------------------|-x---------------------|
A|---------------------|--------------------------|-----------------------|
D|---------------------|--------------------------|-----------------------|

E|--------------------|-----------------------------|--------------------|
B|--------------------|-----------------------------|--------------------|
G|-14\11^-11^-11^-11^-|-(11)------------------------|--------------------|
D|--------------------|----------(Pick slide)--<7>--|-8^-----(8^)------8-|
A|--------------------|----------(Pick Slide)-------|----------------8---|
D|--------------------|-----------------------------|--------------------|

E|-------------------------------|----------------------------------|
B|-------------------------------|----------------------------------|
G|-----------------------------9-|-9^-------7-9/|14--12-11----------|
D|-10^--10^-10^-10^----(10)-10---|-------------------------12-(12)\-|
A|-------------------------------|----------------------------------|
D|-------------------------------|----------------------------------|

E|--------------------------|------------------------------|
B|------------11^---(11)----|-------------13^--(13^)--(13)-|
G|---------10---------------|----------12------------------|
D|-8-10/12------------------|-10-12/14---------------------|
A|-----------------------10-|------------------------------|
D|--------------------------|------------------------------|

E|------------------------|-----------------------------------------|
B|-13^tr-----13-13-(13)^--|-(13)p12p10------------------------------|
G|------------------------|------------13p12p10tr-------(10)\-15-15-|
D|------------------------|-----------------------------------------|
A|------------------------|-----------------------------------------|
D|------------------------|-----------------------------------------|

E|-15^--15^-15^-15^-15^----(15)-------|-18^---18^-18^-18^-18^---(18)\-------|
B|------------------------------------|-------------------------------10-10-|
G|------------------------------15-15-|-------------------------------------|
D|------------------------------------|-------------------------------------|
A|------------------------------------|-------------------------------------|
D|------------------------------------|-------------------------------------|


[Bridge 2]

E|-----------------|--------------|-----------------|-----------------|x2
B|-----------------|--------------|-----------------|-----------------|
G|-7-----------7---|--------------|-----------------|-----------------|
D|-7-6-5-3-0-3-7-6-|-5-3-0-3---8/-|-3-3-3-3-3-3-3-3-|-3-3-3-3-3-3-3-3-|
A|-5-6-5-3-0-3-5-6-|-5-3-0-3---8/-|-3-3-3-3-3-3-3-3-|-3-3-3-3-3-3-3-3-|
D|---6-5-3-0-3---6-|-5-3-0-3---8/-|-3-3-3-3-3-3-3-3-|-3-3-3-3-3-3-3-3-|

E|-----------------|-----------------|-----------------|-----------------|
B|-----------------|-----------------|-----------------|-----------------|
G|-----------------|-----------------|-3-3-3-3-3-3-3-3-|-3-3-3-3-3-3-3-3-|
D|-1-1-1-1-1-1-1-1-|-1-1-1-1-1-1-1-1-|-3-3-3-3-3-3-3-3-|-3-3-3-3-3-3-3-3-|
A|-1-1-1-1-1-1-1-1-|-1-1-1-1-1-1-1-1-|-1-1-1-1-1-1-1-1-|-1-1-1-1-1-1-1-1-|
D|-1-1-1-1-1-1-1-1-|-1-1-1-1-1-1-1-1-|-----------------|-----------------|

E|-----------------|-----------------|-----------------|-----------------|
B|-----------------|-----------------|-----------------|-----------------|
G|-----------------|-----------------|-----------------|-3-3-3-3-3-3-3-3-|
D|-3-3-3-3-3-3-3-3-|-3-3-3-3-3-3-3-3-|-1-1-1-1-1-1-1-1-|-3-3-3-3-3-3-3-3-|
A|-3-3-3-3-3-3-3-3-|-3-3-3-3-3-3-3-3-|-1-1-1-1-1-1-1-1-|-1-1-1-1-1-1-1-1-|
D|-3-3-3-3-3-3-3-3-|-3-3-3-3-3-3-3-3-|-1-1-1-1-1-1-1-1-|-----------------|

 2nd Solo:
 Guitar 1
 (Guitar 2 Plays Chords)
  A
E|-------------------------------10-13-|-12tr----(12)\-----12-13-13-/15-15-|
B|----------------------10-11-13-------|-----------------------------------|
G|12^tr------(12)-12-12----------------|---------------/14-----------------|
D|-------------------------------------|-----------------------------------|
A|-------------------------------------|-----------------------------------|
D|-------------------------------------|-----------------------------------|
 Bb

E|-15tr-------------------/15-15-17-|-18---------------------------------|
B|----------18-17-18-(18)\----------|----17-15----18-15------------------|
G|----------------------------------|----------15-------15----17-15------|
D|----------------------------------|----------------------15-------15---|
A|----------------------------------|----------------------------------15&
D|----------------------------------|------------------------------------|
               C

E|-------------|------------------------------|----17-18-20tr------20\-|
B|-------------|---------------------17----17-|-18---------------------|
G|-------------|------------------15----15----|------------------------|
D|-17-15-------|------------14-17-------------|------------------------|
A|-------15-16-|-17^---(17)-------------------|------------------------|
D|-------------|------------------------------|------------------------|
 D     Ab                      G                F              G

E|------------------------------------------|------------------------------|
B|-13^tr------13----------------------------|------------------------------|
G|---------------13-12----------12-10-------|----------10-------12-10-12-15&
D|---------------------13-10----------12-10-|-------------12-10------------|
A|---------------------------11-------------|-13-10-12---------------------|
D|------------------------------------------|------------------------------|
     Ab

E|----15-16----------|
B|-15-------16-11-12-|
G|-------------------|
D|-------------------|
A|-------------------|
D|-------------------|


[Bridge 3]

E|-----------------|-----------------|-----------------|-----------------|x2
B|-----------------|-----------------|-----------------|-----------------|
G|-----------------|-----------------|-----------------|-----------------|
D|-0-0-0-0-0-0-0-0-|-0-0-0-0-0-0-0-0-|-1-1-1-1-1-1-1-1-|-1-1-1-1-1-1-1-1-|
A|-0-0-0-0-0-0-0-0-|-0-0-0-0-0-0-0-0-|-1-1-1-1-1-1-1-1-|-1-1-1-1-1-1-1-1-|
D|-0-0-0-0-0-0-0-0-|-0-0-0-0-0-0-0-0-|-1-1-1-1-1-1-1-1-|-1-1-1-1-1-1-1-1-|

 Guitar 2 Plays Chords
 Guitar 1
  F
E|---------|--------------|-----------|-------------|--------|----------/17-|
B|---------|--------------|-16^tr-----|--------(16)-|-20^tr--|-----(20)-----|
G|-14^-----|--------(14)--|-----------|-------------|--------|--------------|
D|---------|--------------|-----------|-------------|--------|--------------|
A|---------|--------------|-----------|-------------|--------|--------------|
D|---------|--------------|-----------|-------------|--------|--------------|
                           D

E|-18^tr------|-----------------|
B|------------|-------x---------|
G|------------|------------/17--|
D|------------|-----------------|
A|------------|-----------------|
D|------------|-----------------|


[Interlude 3]

                             Guitar 1
E|-----------------|---------17181920|
B|-----------------|-----------------|
G|-7-----------7---|-----------------|
D|-7-6-5-3-0-3-7-6-|-5-3-0-3-1-1-1-1-|
A|-5-6-5-3-0-3-5-6-|-5-3-0-3-1-1-1-1-|
D|---6-5-3-0-3---6-|-5-3-0-3-1-1-1-1-|
pm                          . . . .

[Last Chorus]

E|---------|---------|---------|---------|---------|---------|---------|
B|---------|---------|---------|---------|---------|---------|---------|
G|---------|---------|---------|---------|---------|---------|---------|
D|-0-2-3-8-|-8-8-8-8-|-8-7-5-5-|-5-5-5-5-|-0-2-3-3-|-3-3-3-3-|-8-7-5-5-|
A|-0-3-3-8-|-8-8-8-8-|-5-3-3-3-|-3-3-3-3-|-0-3-3-3-|-3-3-3-3-|-5-3-3-3-|
D|-0-2-3-8-|-8-8-8-8-|-5-3-2-2-|-2-2-2-2-|-0-2-3-3-|-3-3-3-3-|-5-3-2-2-|

E|---------|--------------|-------------|-------------------|--------------|
B|---------|o-------------|-------------|-------------------|-------------o|
G|---------|--------------|-------------|-------------------|-5------------|
D|-5-5-5-5-|--3-3-0-2-2-2-|-3-2---3-3-3-|--8----8-----7-7-7-|---5---3-3-3--|
A|-3-3-3-3-|o-5-5-0-3-3-3-|-1-1-0-3-3-3-|-1--0-1--0-0-8-8-8-|-----7-5-5-5-o|
D|-2-2-2-2-|--------------|-----0-3-3-3-|-----------0-------|--------------|

E|--------------|-------------|-------------------|--------------|
B|o-------------|-------------|-------------------|-------------o|
G|--------------|-------------|-------------------|-5------------|
D|--3-3---2-2-2-|-3-2---3-3-3-|--8----8-----7-7-7-|---5---3-3-3--|
A|o-5-5-0-3-3-3-|-1-1-0-3-3-3-|-1--0-1--0-0-8-8-8-|-----7-5-5-5-o|
D|------0-------|-----0-3-3-3-|-----------0-------|--------------|


[Outro]

E|-----------------|--------------|-----------------|-----------------|
B|-----------------|--------------|-----------------|-----------------|
G|-7-----------7---|--------------|-7-----------7---|-----------------|
D|-7-6-5-3-0-3-7-6-|-5-3-0-3---8/-|-7-6-5-3-0-3-7-6-|-5-3-0-3-2-2-2-2-|
A|-5-6-5-3-0-3-5-6-|-5-3-0-3---8/-|-5-6-5-3-0-3-5-6-|-5-3-0-3-2-2-2-2-|
D|---6-5-3-0-3---6-|-5-3-0-3---8/-|---6-5-3-0-3---6-|-5-3-0-3---------|
pm                                                           . . . .
                                                             Guitar 1

E|-----------------|--------------|-----------------|---------17-18-19-20|
B|-----------------|--------------|-----------------|--------------------|
G|-7-----------7---|--------------|-7-----------7---|--------------------|
D|-7-6-5-3-0-3-7-6-|-5-3-0-3-5^%--|-7-6-5-3-0-3-7-6-|-5-3-0-3-x--x--x--x-|
A|-5-6-5-3-0-3-5-6-|-5-3-0-3------|-5-6-5-3-0-3-5-6-|-5-3-0-3-x--x--x--x-|
D|---6-5-3-0-3---6-|-5-3-0-3------|---6-5-3-0-3---6-|-5-3-0-3-x--x--x--x-|



************************************

| /   slide up
| \   Slide down
| ~   Sustain
| h   hammer-on
| p   pull-off
| ^   bend
| tr  trill
| <>  Harmonic
| &   Bar Continues/Bar Continues from...
| %   Pick Notes While Bending

************************************
Suggest correction
comments
print report bad tab
35 comments total. Showing first comments.
+1 reply
Emergency? 10 wrote on April 18 2006, 04:15 pm

pretty good but in the intro there are palm mutes that u missed but other than that GREAT! finaly a full version and wut does trill mean? i can already play this song haha and i dont trill

0 reply
teenspirit_02 10 wrote on April 18 2006, 10:12 pm

not bad

0 reply
WaShedUP 31 wrote on April 19 2006, 12:12 am

ive been waiting on a correct version on this song good job

guest
You may want to rate the tab now too:
select rating
Please do not post tabs as comments. Select "correction" instead!