Oops, an error
Loading. Please wait.

Blinded In Chains Tab

version 2
version 2
31,196 views 1 this week
14 commentsread comments
1 2 3 4 5
x 18
add to favorites
launch autoscroll
font size
0
reset
how to read this tab
guitar tuner
Autoscroll
slow
fast
+/-
esc
set tempo
stop
Help us to improve Ultimate-Guitar.com Take our survey!
×
Difficulty
Tuning
advanced
D A D G B E
Tab by: Dave Ladner
email: drinkdrankpunk101@hotmail.com    

NOTE: This tab is about 95% correct. A7X is an intense band, and thus tabbing is quite
hard. Some parts I have only included chords where crazy high riffs are going on, that
I just can't tab. Any comments to my email please! Enjoy! I didn't include a legend,
because if you don't know what few musical terms I actually used, then you probably
can't play this anyways.

INTRO

E---------------------------------------------|
B-------Palm Mute-----------------------------|
G---------------------------------------------| 
D-0000000--0000000--0000----------------------| x4
A-0000000--0000000--0000----------------------|
D-0000000--0000000--0000----------------------|

E--------------------------------------------------|
B--------------------13-15-11----15-13-10----13/17-|
G--7---7---7-7-9-10-----------12----------10-------|
D----7---7-----------------------------------------|
A--------------------------------------------------|
D--------------------------------------------------|

E-------------------------------18-17-18-17--18-17-18-17-------------|
B-18-17-18-17-15-18-17-18-17-15------------18-----------18-----------|
G--------------------------------------------------------------------|
D--------------------------------------------------------------------|
A--------------------------------------------------------------------|
D--------------------------------------------------------------------|

E---17-18-----18-17-----17-15-13h15p13-------|
B-20-----20-15-----18-15--------------17-----|
G--------------------------------------------|
D--------------------------------------------|
A--------------------------------------------|
D--------------------------------------------|

PREVERSE

E------------------------------------------|
B----Palm Mute-----------------------------|
G------------------------------------------|
D-00-000-000-06666-00-000-000-04444--------| x2
A-00-000-000-06666-00-000-000-04444--------|
D-00-000-000-06666-00-000-000-04444--------|

E--------------------------13^------------------------------------------13^--|
B--------------12-12-15-12-------------------15-12----------12-12-15-12------|
G------14--13^----------------------14--13^-------15-14-12-------------------|
D-12-12--12--------------------12-12--12-------------------------------------|
A----------------------------------------------------------------------------|
D----------------------------------------------------------------------------|

E--------------------------------------------------------------15-16-17-18-17-15-17-|
B-15-12-----------------------------------13-14-15-16-15-13-15----------------------|
G------15-14-12--14--12-13-14-15-14-12-14-------------------------------------------|
D-----------------------------------------------------------------------------------|
A-----------------------------------------------------------------------------------|
D-----------------------------------------------------------------------------------|

E-----------------------|
B----------------16-15^-|
G-12-13-14-15-14--------|
D-----------------------|
A-----------------------|
D-----------------------|

VERSE

E------------------------------------------|
B----Palm Mute-----------------------------|
G------------------------------------------|
D-00-000-000-06666-00-000-000-04444--------| x4
A-00-000-000-06666-00-000-000-04444--------|
D-00-000-000-06666-00-000-000-04444--------|

CHORUS

E--------------------------------------------------------|
B--------------------------------------------------------|
G-14-12----------------12--------------------------------|
D------15-12-14-15---12--14-12-14-15---12--12-14-15-14---|
A--------------------------------------------------------|
D--------------------------------------------------------|

VERSE - OUTRO

E-------------------|----------|
B-10-----10-8-------|-6/8-10-6-|
G---10-7-----9------|----------|x2
D-------------9-----|----------|
A---------------10--|----------|
D-------------------|----------|

E------------------------------------------|
B----Palm Mute-----------------------------|
G------------------------------------------|
D-00-000-000-06666-00-000-000-04444--------| x4
A-00-000-000-06666-00-000-000-04444--------|
D-00-000-000-06666-00-000-000-04444--------|

E------------------------------------------|
B------------------------------------------|
G------------------------------------------|
D------------------------------------------|x2
A-10^(full)--9^(full)--7^(full)--4^(full)--|
D------------------------------------------|

E--------------------------------------------------------|
B--------------------------------------------------------|
G-14-12----------------12--------------------------------|
D------15-12-14-15---12--14-12-14-15---12--12-14-15-14---|x2
A--------------------------------------------------------|
D--------------------------------------------------------|

E-----------------------------------|
B-----------------------------------|
G-----------------------------------|
D-000-333-555-8888-7777777-8-7-5-7--|x2
A-000-333-555-8888-7777777-8-7-5-7--|
D-000-333-555-8888-7777777-8-7-5-7--|

E----------------------------|
B----------------------------|
G----------------------------|
D--------------------8-8-7-5-|x2
A--5-7-8--5-7-8--5-7---------|
D-0------3------5------------|

E-------------------|----------|   -----------6/8------6/8--12-13-10-|
B-10-----10-8-------|-6/8-10-6-|   -10-----10------------------------|
G---10-7-----9------|----------|x3 ---10-7--------9------------------|x1
D-------------9-----|----------|   ----------------9-----------------|
A---------------10--|----------|   ----------------------------------|
D-------------------|----------|   ----------------------------------|

E--------------------------------------------|
B--------------------------------------------|
G--------------------------------------------|
D-0000000--0000000--0000---------------------|
A-0000000--0000000--0000---------------------|
D-0000000--0000000--0000---------------------|

MID-VERSE

E-----------------------------------------------
B-----------------------------------------------
G:----------------------------------------------
D:-0000000--0000000--0000-8888888-8888888-8888--
A--0000000--0000000--0000-8888888-8888888-8888--
D--0000000--0000000--0000-8888888-8888888-8888--

E-------------------------------------------------|
B-------------------------------------------------|
G------------------------------------------------:|
D-5555555--5333333--3333--2222222--2222222--2222-:|x2
A-5555555--5333333--3333--2222222--2222222--2222--|
D-5555555--5333333--3333--2222222--2222222--2222--|

E--------------------------------------------------------
B--------------------------------------------------------
G----------------12-14-15-----
D-12--12-15-12-15----------------------------------------
A--------------------------------------------------------
D--------------------------------------------------------

E-15-17-18-15----18-17-13---15h17-15-----------------------------|
B------------15----------15------------|
G----------------------------------------------------------------|
D----------------------------------------------------------------|x2
A----------------------------------------------------------------|
D----------------------------------------------------------------|

E-------------------------------18-17-18-17--18-17-18-17-------------|
B-18-17-18-17-15-18-17-18-17-15------------18-----------18-----------|
G--------------------------------------------------------------------|
D--------------------------------------------------------------------|
A--------------------------------------------------------------------|
D--------------------------------------------------------------------|

E---17-18-----18-17-----17-15-13h15p13-------|
B-20-----20-15-----18-15--------------17-----|
G--------------------------------------------|
D--------------------------------------------|
A--------------------------------------------|
D--------------------------------------------|

E-----------------------------------------------|
B-----------------------------------------------|
G-----------------------------------------------|
D-0-----3----4----5-----8-----7-----3-----5-----|x2
A-0(16)-3(8)-4(8)-5(16)-8(16)-7(16)-3(8)--5(8)--|
D-0-----3----4----5-----8-----7-----3-----5-----|

E---------------------------------------------------------------------|
B---------------------------------------------------------------------|
G-14-12----------------12------------------------------------------14-|
D------15-12-14-15---12--14-12-14-15---12--12-14-15-14---12--14-15----|
A---------------------------------------------------------------------|
D---------------------------------------------------------------------|

E--------------------------------------------------------|
B--------------------------------------------------------|
G-14-12----------------12--------------------------------|
D------15-12-14-15---12--14-12-14-15---12--12-14-15-14---|x2
A--------------------------------------------------------|
D--------------------------------------------------------|

E-----------------------------------|
B-----------------------------------|
G-----------------------------------|
D-000-333-555-8888-7777777-8-7-5-7--|x2
A-000-333-555-8888-7777777-8-7-5-7--|
D-000-333-555-8888-7777777-8-7-5-7--|


E-------------------------------------------------------------------------------------|
B-------------------------------------------------------------8h9h10-6---6------------|
G-----------------------------------------------------10-7-10----------10--10--7------|
D-7-8-7-5-7-3-5-2--7-8-7-5-7-3-5-2---8-7-5---8-7-5---------------------------------0~-|
A------------------------------------------7-------7-------------------------------0~-|
D----------------------------------------------------------------------------------0~-|

END

E---------------------------------------------------|
B---------------------------------------------------|
G-----14-14----13-13----13-13/14--------------------|
D-000-15-15-00-14-14-00-14-14/15--------------------| Fades out
A-000-------00-------00-----------------------------|
D-000-------00-------00-----------------------------|
Suggest correction
comments
print report bad tab
14 comments total. Showing first comments.
0 reply
Arch_Enemy_1234 10 Nov 05, 2005 01:39 PM

yay im the first
sweet

-1 reply
xemosucksx 152 Nov 05, 2005 03:32 PM

Not accurate.

0 reply
moptop 126 Nov 05, 2005 08:20 PM

preety danme good

guest
You may want to rate the tab now too:
select rating
Wanna post a correction for this tab? Suggest correction