Oops, an error
Loading. Please wait.

Breaking Their Hold Tab

version 3
version 3

Whole song

Interactive

37 views 1 this week
no commentswrite comment
1 2 3 4 5
3 more votes to show rating
add to favorites
launch autoscroll
font size
0
reset
how to read this tab
guitar tuner
Autoscroll
slow
fast
+/-
esc
set tempo
stop
Help us to improve Ultimate-Guitar.com Take our survey!
×
Author
Difficulty
Tuning
intermediate
D A D G B E
Band: Avenged Sevenfold
Song: Breaking Their Hold
Tuning: Drop D
Tabbed by: Peryitex

[Intro]

E|---------------------------------------------------------------------------|
B|---------------------------------------------------------------------------|
G|---------------------------------------------------------------------------|
D|---------------------------------------------------------------------------|
A|-0-------------------------------------0-----------------------------------|
D|-4-------------------------------------4-----------------------------------|

[Verse 1]

E|-----------------------|-----------------------|-----------------------|-----------------------|
B|-----------------------|-----------------------|-----------------------|-----------------------|
G|-----------------------|-----------------------|-----------------------|-----------------------|
D|-5--5----5--3--3----3--|-1--1----1--1--1----1--|-----------------------|-----------------------|
A|-5--5----5--3--3----3--|-1--1----1--1--1----1--|-0--0----0--0--0----0--|-0--0----0--0--0----0--|
D|-5--5----5--3--3----3--|-1--1----1--1--1----1--|-4--4----4--4--4----4--|-4--4----4--4--4----4--|
                                                                                                     4x
E|-----------------------|-----------------------|-----------------------|-----------------------|
B|-----------------------|-----------------------|-----------------------|-----------------------|
G|-12-12---12-14-14---14-|-15-15---15-15-15---15-|-11-11---11-11-11---11-|-11-11---11-11-11---11-|
D|--x--x----x--x--x----x-|--x--x----x--x--x----x-|--x--x----x--x--x----x-|--x--x----x--x--x----x-|
A|-10-10---10-12-12---12-|-13-13---13-13-13---13-|--9--9----9--9--9----9-|--9--9----9--9--9----9-|
D|-----------------------|-----------------------|-----------------------|-----------------------|


[Bridge]

E|-----------------|-----------------|-----------------|-----------------|
B|-----------------|-----------------|-----------------|-----------------|
G|-----------------|-----------------|-----------------|-----------------|
D|-----------------|-------------2-1-|-----------------|-----------------|
A|---3-2---2-1---1-|---3-2---2-1-----|---3-2---2-1---1-|---------3---2---|
D|-2-----3-----2---|-2-----3---------|-2-----3-----2---|-3---2-----------|

E|-----------------|-----------------|-----------------|-----------------|
B|-----------------|-----------------|-----------------|-----------------|
G|-----------------|-----------------|-----------------|-----------------|
D|-0---------------|-0---------------|-2---------------|-----------------|
A|-0---------------|-0---------------|-2---------------|---------3---2---|
D|-0---------------|-0---------------|-2---------------|-3---2-----------|


E|-----------------|-----------------|-----------------|-----------------|-------------------------|
B|-----------------|-----------------|-----------------|-----------------|-------------------------|
G|-----------------|-----------------|-----------------|-----------------|---------3---2-----------|
D|-----------------|-------------2-1-|-----------------|-----------------|-3---2-------------------|
A|---3-2---2-1---1-|---3-2---2-1-----|---3-2---2-1---1-|---------3---2---|-------------------------|
D|-2-----3-----2---|-2-----3---------|-2-----3-----2---|-3---2-----------|-------------------------|

E|-----------------|-----------------|-----------------|-----------------|-------------------------|
B|-----------------|-----------------|-----------------|-----------------|-------------------------|
G|-----------------|-----------------|-----------------|-----------------|---------3---2-----------|
D|-2---------------|-2---------------|-2---------------|-----------------|-3---2-------------------|
A|-2---------------|-2---------------|-2---------------|---------3---2---|-------------------------|
D|-2---------------|-2---------------|-2---------------|-3---2-----------|-------------------------|


E|-----------------|
B|-(2)-------------|
G|--2--------------|
D|-----------------|
A|-----------------|
D|-----------------|


[Verse 2]

E|-----------------|-----------------|-----------------|-----------------|
B|-----------------|-----------------|-----------------|-----------------|
G|-----------------|-----------------|-----------------|-----------------|
D|-----------------|-------------2-1-|-----------------|-----------------| 3x
A|---3-2---2-1---1-|---3-2---2-1-----|---3-2---2-1---1-|---------3---2---|
D|-2-----3-----2---|-2-----3---------|-2-----3-----2---|-3---2-----------|


E|-----------------|-----------------|-----------------|
B|-----------------|-----------------|-----------------|
G|-----------------|-----------------|-----------------|
D|-----------------|-------------2-1-|-----------------|  
A|---3-2---2-1---1-|---3-2---2-1-----|---3-2---2-1---1-|
D|-2-----3-----2---|-2-----3---------|-2-----3-----2---|


E|-----------------|-----------------|
B|-----------------|--------(3)-(2)--|
G|-----------------|---------3---2---|  
D|-----------------|-3---2-----------| 4x
A|---------3---2---|-----------------|
D|-3---2-----------|-----------------|

**************************************

| x    Dead note
| (n)  Ghost note

**************************************
Suggest correction
Give kudos to tab author, rate the tab!
1 2 3 4 5
comments
print report bad tab
guest
You may want to rate the tab now too:
select rating
Wanna post a correction for this tab? Suggest correction