Oops, an error
Loading. Please wait.

Brompton Cocktail Tab

version 2
version 2

Whole song

28,978 views 3 this week
9 commentsread comments
1 2 3 4 5
accurate
x 17
add to favorites
launch autoscroll
font size
0
reset
how to read this tab
guitar tuner
Tab Pro tools
  • play this tab
  • loop segment
  • change instrument
  • show fretboard
  • metronome
×
Best way to learn
"Brompton Cocktail"
Autoscroll
slow
fast
+/-
esc
set tempo
stop
Contributor
Difficulty
Tuning
advanced
D A D G B E

Song : Brompton Cocktail
Band:  Avenged Sevenfold
Album: Avenged Sevenfold

This song is just too f*ckin awesome!!!
This is my first Tab, so theres bound to be some mistakes
plus, this song was made by synyster gates.....enough said...lol
rate and comment 
enjoy


A7X 4 life!!!!

ok, so the song starts with some crazy whammy bar and effects.....
and then.....


Intro: 2x   

e-----------------------------------------------------------------------|
B-----------------------------------------------------------------------|
G-----------------------------------------------------------------------|
D----0-------------------3----7---8---7----------------3---7---3~-------|
A----0---------/8--7---0-3-0--5-0-8-0-7-------/8--7--0-3-0-7-0-3~-------|
D----0---0000--/8--7---0-3-0----0-8-0-7-0000--/8--7--0-3-0-7-0-3~-------|
         ....                           ....
      


Verse: 2x  

e-----------------------------------------------------------------------|
B-----------------------------------------------------------------------|
G-----------------------------------------------------------------------|
D-----------------------------------------------------------------------|
A---------------/8------------/8------------/8--------------------------|
D----0-0-0-0-0--/8--0-0-0-0-0-/8--0-0-0-0-0-/8--------------------------|
     . . . . .      . . . . .     . . . . .


Pre-chorus: 1x 

e-----------------------------------------------------------------------|
B-----------------------------------------------------------------------|
G-----------------------------------------------------------------------|
D-7------7------8---5------5------7---3------3------3---2------2------2-|
A-7--00--7--00--8-0-5--00--5--00--7-0-3--00--3--00--3-0-2--00--2--00--2-|
D-7--00--7--00--8-0-5--00--5--00--7-0-3--00--3--00--3-0-2--00--2--00--2-|
     ..     ..    .    ..     ..    .    ..     ..    .    ..     ..  


e-----------------------------------------------------------------------|
B-----------------------------------------------------------------------|
G-----------------------------------------------------------------------|
D--------7------7--------5------5--------5-3-3--------3-2-2-------------|
A--------7------7--------5------5--------5-3-3--------3-2-2-------------|
D-000000-7-0000-7-000000-5-0000-5-000000-5-3-3-000000-3-2-2-------------|
  ......   ....   ......   ....   ......       ......
       


Chorus: 1x


e-----------------------------------------------------------------------|
B-----------------------------------------------------------------------|
G-----------------------------------------------------------------------|
D--0-------0/2-------2/3-------3/5-------5/3-------3/2-------2/5--------|
A--0-------0/2-------2/3-------3/5-------5/3-------3/2-------2/5--------|
D--0-00000-0/2-00000-2/3-00000-3/5-00000-5/3-00000-3/2-00000-2/5-00000--|
     .....     .....     .....     .....     .....     .....     .....



e-----------------------------------------------------------------------|
B-----------------------------------------------------------------------|
G-----------------------------------------------------------------------|
D--5/7---7---5-5-5------------------------------------------------------|
A--5/7---7---5-5-5------------------------------------------------------|
D--5/7-0-7-0-5-5-5------------------------------------------------------|
       .   .



e-----------------------------------------------------------------------|
B-----------------------------------------------------------------------|
G-----------------------------------------------------------------------|
D-------------3--3-333---3--3-333---5--5-555----------------------------|
A--0--0-000---1--1-111---1--1-111---5--5-555----------------------------|
D--0--0-000-------------------------5--5-555----------------------------|



 


      
Verse 2x
     
Pre-chorus 1x

Chorus 1x




Post-chorus: 2x  (12,10,3,5)

e-----------------------------------------------------------------------|
B-----------------------------------------------------------------------|
G-----------------------------------------------------------------------|
D--12-121212121212--10-101010101010--3-333333--55555555-----------------|
A--12-121212121212--10-101010101010--3-333333--55555555-----------------|
D--12-121212121212--10-101010101010--3-333333--55555555-----------------|




Bridge: 2x  (second time pre-solo begins)



e-------------------------------------------------------------------|
B-------------------------------------------------------------------|
G-------------------------------------------------------------------|
D-------------------------------------------------------------------| x2
A--8-h7-----8-h7------7-----7-h8-----5-h3-----5-h3------3------3-h5-|
D-------00--------00-----0-----------------00-------00------0-------|
        ..        ..     .                 ..       ..      .


e-------------------------------------------------------------------|
B-------------------------------------------------------------------|
G-------------------------------------------------------------------|
D-------------------------------------------------------------------| x1
A-12-h10----12-h10----10---10-h12--10-h8-----10-h8----10-h8---8-h10-|
D--------55--------55----5----------------33-------33-------3-------|
         ..        ..    .                ..       ..       .
         


Pre-Solo: 2:58 (yeah....lots of mistakes, but i tried...lol)

e-----------------------------------------------------------------------|
B-----------------------------------------------------------------------|
G-----------------------------------------------------------------------|
D--/12~--10-14b--[10]~---/12~--10-14b--[10]~---12-[14](whammy bar-------|
A------------------------------------------------------the hell out of--|
D------------------------------------------------------this last note)--|


Solo:


e---13b-13~--13b-13~-------------------------|
B---16b-16~--16b-16~-------------------------|
G--------------------------------------------|
D--------------------------------------------|
A--------------------------------------------|
D--------------------------------------------|

 


e--------------10-13-10------10-13-10--10-12-15-16-18-----18--------|
B------------10--------10--10--------10--------------17-15--15-17---|
G----------10------------8------------------------------------------|
D-13--13-12---------------------------------------------------------|
A---14--------------------------------------------------------------|
D-------------------------------------------------------------------|




e-15-17-18-20-22-23--20~~-----|
B-----------------------------|
G-----------------------------|
D-----------------------------|
A-----------------------------|
D-----------------------------|




Chorus 1x
Post-Chorus 2x




Outro:

e--------------------------------------------------|
B--------------------------------------------------|
G--------------------------------------------------|
D-----------------------------------0--------------|
A---------------/8------------/8----0--------------|
D----0-0-0-0-0--/8--0-0-0-0-0-/8----0--------------|
                                    (Short Note)







Tab Legend
----------
 .   - Palm Mute
 h   - hammer-on
 p   - pull-off
 b   - bend
 pb  - pre-bend
 r   - bend release (if no number after the r, then release immediately)
 /\  - slide into or out of (from/to "nowhere")
[ ]  - artificial harmonic
 ~   - vibrato
comments
print report bad tab
9 comments total. Showing first comments.
+3 reply
staind915 wrote on February 7 2008, 11:44 pm

this song is pretty much spot on i dunno why other people aren't looking at this tab more

+4 reply
colombianoman wrote on March 8 2008, 04:57 pm

thanks
maybe its the rating...
but i think i did a descent job

+3 reply
ZackyVengeance7 wrote on April 14 2008, 07:53 am

nice try!!!
there are some parts sounded wrong but you've tried

I want to post or [tab]
guest
You may want to rate the tab now too:
select rating
Please do not post tabs as comments. Select "correction" instead!