Oops, an error
Loading. Please wait.
We have Chord Pro version of Buried Alive.
It's the closest thing you can get to the original song and it has interactive parts. Check out the tab »
×
6,670 views 6 this week
2 commentsread comments
1 2 3 4 5
x 6
add to favorites
×
Save as Personal and add changes to this tab that will be seen only by you. Learn more ›
×
You can save this tab as Personal to edit and correct it or add notes. All changes will be seen only by you. Learn more »
launch autoscroll
font size
0
reset
guitar tuner
backing track
0:00
0:00
edit
Autoscroll
slow
fast
+/-
esc
set tempo
stop
Intro
G|---------------------5-r-9-----------------------|
D|-7-----------------------------------------------|
A|-------------------------------------------------|
D|-------------------------------------------------|
   1 + 2 + 3 + 4 + 5 + 6 + 1 + 2 + 3 + 4 + 5 + 6 + 

G|-7-------------------5---------------------------|
D|-----------------------9-7-----------------------|
A|-------------------------------------------------|
D|-------------------------------------------------|
   1 + 2 + 3 + 4 + 5 + 6 + 1 + 2 + 3 + 4 + 5 + 6 + 

G|---------------------5-r-9-----------------------|
D|-7-----------------------------------------------|
A|-------------------------------------------------|
D|-------------------------------------------------|
   1 + 2 + 3 + 4 + 5 + 6 + 1 + 2 + 3 + 4 + 5 + 6 + 

G|-7---------------7-r-9-r-10----------9-----------|
D|-------------------------------------------------|
A|-------------------------------------------------|
D|-------------------------------------------------|
   1 + 2 + 3 + 4 + 5 + 6 + 1 + 2 + 3 + 4 + 5 + 6 +

0:20
G|--------------------------------------------------|
D|-7---------7h9---------9h10--------10h12----------|
A|--------------------------------------------------|
D|--------------------------------------------------|
   1 + 2 + 3 + 4 + 5 + 6 + 1 + 2 + 3 +  4 + 5 + 6 +

G|-------------------------------------------------|
D|-7---------7h9-----------12----------10--10------|
A|-------------------------------------------------|
D|-------------------------------------------------|
   1 + 2 + 3 + 4 + 5 + 6 + 1 + 2 + 3 +  4 + 5 + 6 +

G|--------------------------------------------------|
D|-7---------7h9---------9h10--------10h12------10--|
A|--------------------------------------------------|
D|--------------------------------------------------|
   1 + 2 + 3 + 4 + 5 + 6 + 1 + 2 + 3 +  4 + 5 + 6 +

G|-------------------------------------------------|
D|-7---------7h9-----------12----------10--10------|
A|-----------------------------------------------7-|
D|-------------------------------------------------|
   1 + 2 + 3 + 4 + 5 + 6 + 1 + 2 + 3 +  4 + 5 + 6 + 

G|-------------------------------------------------|
D|-7-----------5-------------------------------5---|
A|-------------------------8-----------------------|
D|-------------------------------------------------|
   1 + 2 + 3 + 4 + 5 + 6 + 1 + 2 + 3 + 4 + 5 + 6 + 

G|-------------------------------------------------|
D|-7-----------5-----------------------------------|
A|-------------------------8-----------------------|
D|-------------------------------------------------|
   1 + 2 + 3 + 4 + 5 + 6 + 1 + 2 + 3 + 4 + 5 + 6 + 

Main Riff 0:50
G|-----------------------------------------------------------------|
D|---------------------------0-2---3-----------3---2-------2-0-----|
A|-0-----0-0-r-2-r-3-------3-----------------------------------3-2-|
D|-----------------------------------------------------------------|
   1 + 2 + 3 + 4 + 1 + 2 + 3 + 4 + 1 + 2 + 3 + 4 + 1 + 2 + 3 + 4 +

G|-----------------------------------------------------------------|
D|---------------------------0-2---------------------------2-0-----|
A|-0-----0-0-r-2-r-3-------3-----------------------------------3-2-|
D|---------------------------------3-----------3---2---------------|
   1 + 2 + 3 + 4 + 1 + 2 + 3 + 4 + 1 + 2 + 3 + 4 + 1 + 2 + 3 + 4 +

G|-----------------------------------------------------------------|
D|---------------------------0-2---3---------------2-------2-0-----|
A|-0-----0-0-r-2-r-3-------3-----------------------------------3-2-|
D|-----------------------------------------------------------------|
   1 + 2 + 3 + 4 + 1 + 2 + 3 + 4 + 1 + 2 + 3 + 4 + 1 + 2 + 3 + 4 +

G|-----------------------------------------------------------------|
D|---------------------------0-2---------------------------2-0-----|
A|-0-----0-0-r-2-r-3-------3-----------------------------------3-2-|
D|---------------------------------3---------------2---------------|
   1 + 2 + 3 + 4 + 1 + 2 + 3 + 4 + 1 + 2 + 3 + 4 + 1 + 2 + 3 + 4 +

Verse 1:18
G|-------------------------------------------------------------------|
D|o---------------------------0-2-----------------------------------o|
A|o-0-----0-0-r-2-r-3-------3---------------------------------------o|x3
D|----------------------------------3-----------3---2-----------2----|
    1 + 2 + 3 + 4 + 1 + 2 + 3 + 4 + 1 + 2 + 3 + 4 + 1 + 2 + 3 + 4 +

G|-----------------------------------------------------------------|
D|---------------------------0-2-----------------------------------|
A|-0-----0-0-r-2-r-3-------3---------------------------------------|
D|---------------------------------3-----------3---2-------0---2---|
   1 + 2 + 3 + 4 + 1 + 2 + 3 + 4 + 1 + 2 + 3 + 4 + 1 + 2 + 3 + 4 +

Pre Chorus 1:45
G|-----------------------------------------------------------------|
D|-----------------------------------------------------------------|
A|-5-----5-5-8-7---3-----3-3-5-3-------------------------------2-3-|
D|---------------------------------5---------------5---5-r-3-5-----|
   1 + 2 + 3 + 4 + 1 + 2 + 3 + 4 + 1 + 2 + 3 + 4 + 1 + 2 + 3 + 4 +

G|-----------------------------------------------------------------|
D|-----------------------------------------------------------------|
A|-5-----5-5-8-7---3-----3-3-5-3-------------------7-------7---7---|
D|---------------------------------5-----------5-------------------|
   1 + 2 + 3 + 4 + 1 + 2 + 3 + 4 + 1 + 2 + 3 + 4 + 1 + 2 + 3 + 4 +

Chorus 1:59
G|-------------------------------------------------|
D|-------------------------------------------------|
A|-0-----0-0-r-------------------------------------|
D|-------------2-r-3-----3-3-----3-6-6-6-7-9-9-\---|
   1 + 2 + 3 + 4 + 1 + 2 + 3 + 4 + 1 + 2 + 3 + 4 + 

G|-----------------------------------------------------------------|
D|-----------------------------------------------------------------|
A|-0-----0-0-r-------------------------------------7-r-5-r-8-r-7-r-|
D|-------------2-r-3-----3-3-----3-6-6-6-7-9-9-\-------------------|
   1 + 2 + 3 + 4 + 1 + 2 + 3 + 4 + 1 + 2 + 3 + 4 + 1 + 2 + 3 + 4 +

G|-------------------------------------------------|
D|-------------------------------------------------|
A|-0-----0-0-r-------------------------------------|
D|-------------2-r-3-------3---3---6-6-6-7-9-9-\---|
   1 + 2 + 3 + 4 + 1 + 2 + 3 + 4 + 1 + 2 + 3 + 4 + 

G|-----------------------------------------------------------------|
D|-----------------------------------------------------------------|
A|-0-----0-0-r-------------------------------------7---------------|
D|-------------2-r-3-------3---3---6-6-6-7-9-9-\-------------------|
   1 + 2 + 3 + 4 + 1 + 2 + 3 + 4 + 1 + 2 + 3 + 4 + 1 + 2 + 3 + 4 +

G|-------------------------------------------------|
D|-------------------------------------------------|
A|-----------------7---------------7-r-5-r-8-r-7-r-|
D|-------------------------------------------------|
   1 + 2 + 3 + 4 + 1 + 2 + 3 + 4 + 1 + 2 + 3 + 4 + 

2:29 interlude
G|-----------------------------------------------------------------|
D|---------------------------0-2---3-----------3---2-------2-0-----|
A|-0-----0-0-r-2-r-3-------3-----------------------------------3-2-|
D|-----------------------------------------------------------------|
   1 + 2 + 3 + 4 + 1 + 2 + 3 + 4 + 1 + 2 + 3 + 4 + 1 + 2 + 3 + 4 +

G|-----------------------------------------------------------------|
D|---------------------------0-2---------------------------2-0-----|
A|-0-----0-0-r-2-r-3-------3-----------------------------------3-2-|
D|---------------------------------3-----------3---2---------------|
   1 + 2 + 3 + 4 + 1 + 2 + 3 + 4 + 1 + 2 + 3 + 4 + 1 + 2 + 3 + 4 +

Verse 2:42
G|-------------------------------------------------------------------|
D|o---------------------------0-2-----------------------------------o|
A|o-0-----0-0-r-2-r-3-------3---------------------------------------o|x3
D|----------------------------------3-----------3---2-----------2----|
    1 + 2 + 3 + 4 + 1 + 2 + 3 + 4 + 1 + 2 + 3 + 4 + 1 + 2 + 3 + 4 +

G|-----------------------------------------------------------------|
D|---------------------------0-2-----------------------------------|
A|-0-----0-0-r-2-r-3-------3---------------------------------------|
D|---------------------------------3-----------3---2-------0---2---|
   1 + 2 + 3 + 4 + 1 + 2 + 3 + 4 + 1 + 2 + 3 + 4 + 1 + 2 + 3 + 4 +

Pre Chorus 3:10
G|-----------------------------------------------------------------|
D|-----------------------------------------------------------------|
A|-5-------5-8-7-5-3-------3-5-3-2-----------------------------2-3-|
D|---------------------------------5---------------5---5-r-3-5-----|
   1 + 2 + 3 + 4 + 1 + 2 + 3 + 4 + 1 + 2 + 3 + 4 + 1 + 2 + 3 + 4 +

G|-----------------------------------------------------------------|
D|-----------------------------------------------------------------|
A|-5-------5-8-7-5-3-------3-5-3-2-----------------7-------7---7---|
D|---------------------------------5-----------5-------------------|
   1 + 2 + 3 + 4 + 1 + 2 + 3 + 4 + 1 + 2 + 3 + 4 + 1 + 2 + 3 + 4 +

Chorus 3:23
G|-------------------------------------------------|
D|-------------------------------------------------|
A|-0-----0-0-r-------------------------------------|
D|-------------2-r-3-----3-3-----3-6-6-6-7-9-9-\---|
   1 + 2 + 3 + 4 + 1 + 2 + 3 + 4 + 1 + 2 + 3 + 4 + 

G|-----------------------------------------------------------------|
D|-----------------------------------------------------------------|
A|-0-----0-0-r-------------------------------------7-r-5-r-8-r-7-r-|
D|-------------2-r-3-----3-3-----3-6-6-6-7-9-9-\-------------------|
   1 + 2 + 3 + 4 + 1 + 2 + 3 + 4 + 1 + 2 + 3 + 4 + 1 + 2 + 3 + 4 +

G|-------------------------------------------------|
D|-------------------------------------------------|
A|-0-----0-0-r-------------------------------------|
D|-------------2-r-3-------3---3---6-6-6-7-9-9-\---|
   1 + 2 + 3 + 4 + 1 + 2 + 3 + 4 + 1 + 2 + 3 + 4 + 

G|-----------------------------------------------------------------|
D|-----------------------------------------------------------------|
A|-0-----0-0-r-------------------------------------7---------------|
D|-------------2-r-3-------3---3---6-6-6-7-9-9-\-------------------|
   1 + 2 + 3 + 4 + 1 + 2 + 3 + 4 + 1 + 2 + 3 + 4 + 1 + 2 + 3 + 4 +

G|-----------------------------------------------------------------|
D|-----------------------------------------------------------------|
A|-----------------7---------------7-r-5-r-8-r-7-r-7---------------|
D|-----------------------------------------------------------------|
   1 + 2 + 3 + 4 + 1 + 2 + 3 + 4 + 1 + 2 + 3 + 4 + 1 + 2 + 3 + 4 +

G|-------------------------------------------------|
D|-------------------------------------------------|
A|-----------------7---------------7-r-5-r-8-r-7-r-|
D|-------------------------------------------------|
   1 + 2 + 3 + 4 + 1 + 2 + 3 + 4 + 1 + 2 + 3 + 4 + 

Solo 3:59
G|------------------------------------------------------------------|
D|o-----------------------------------------------------------------|
A|o-0-0-0-0-0-0-2-r-3-3-3-3-3-3-3-r-5-5-5-5-5-5-5-r-----------0-2---|
D|--------------------------------------------------5-5-5-5-5-------|
    1 + 2 + 3 + 4 + 1 + 2 + 3 + 4 + 1 + 2 + 3 + 4 + 1 + 2 + 3 + 4 +

G|------------------------------------------------------------------|
D|-----------------------------------------------------------------o|
A|-0-0-0-0-0-0-2-r-3-3-3-3-3-3-3-r-5-5-5-5-5-5-5-r-7-r-5-r-8-r-7-r-o|
D|------------------------------------------------------------------|
   1 + 2 + 3 + 4 + 1 + 2 + 3 + 4 + 1 + 2 + 3 + 4 + 1 + 2 + 3 + 4 +

4:26
G|-------------------------------------------------------------------|
D|o-----------------------------------------------------------------o|
A|o-----------------------------------------------------------------o|
D|--7-----7-----2---3-----3-----6---7-----7-----2---3-----3-----6----|
    1 + 2 + 3 + 4 + 1 + 2 + 3 + 4 + 1 + 2 + 3 + 4 + 1 + 2 + 3 + 4 +

G|-----------------------------------------------------------------|
D|-----------------------------------------------------------------|
A|-----------------------------------------------------------------|
D|-7------7----7---6-----6-----6---5-----5-----5---4-----4-----4---|
   1 + 2 + 3 + 4 + 1 + 2 + 3 + 4 + 1 + 2 + 3 + 4 + 1 + 2 + 3 + 4 +

G|-----------------------------------------------------------------|
D|-----------------------------------------------------------------|
A|-----------------7-r-5-r-8-r-7-r-0-------------------------------|
D|-3---------------------------------------------------------------|
   1 + 2 + 3 + 4 + 1 + 2 + 3 + 4 + 1 + 2 + 3 + 4 + 1 + 2 + 3 + 4 +

G|----------------------------------|
D|----------------------------------|
A|----------------------------------|
D|----------------------------------|
   1 + 2 + 3 + 4 + 1 + 2 + 3 + 4 +

4:57
G|-----------------------------------------------------------------|
D|-----------------------------------------------------------------|
A|-----------------------------------------------------------------|
D|-2-2-2-2-2-2-2-2-2-2-2-2-2-2-2-2-2-2-2-2-2-2-2-2-2-2-2-2-2-2-2-2-|
   1 + 2 + 3 + 4 + 1 + 2 + 3 + 4 + 1 + 2 + 3 + 4 + 1 + 2 + 3 + 4 +

G|-------------------------------------------------------------------|
D|o-----------------------------------------------------------------o|
A|o-----------------------------------------------------------------o|x3
D|--2-2-2-2-2-2-2-2-2-2-2-2-2-2-2-2-2-2-2-2-2-2-2-2-5-5-5-4-4-4-3-3--|
    1 + 2 + 3 + 4 + 1 + 2 + 3 + 4 + 1 + 2 + 3 + 4 + 1 + 2 + 3 + 4 +

5:25
G|-----------------------------------------------------------------|
D|-----------------------------------------------------------------|
A|-------0-0-2-2---0-0-0-2-2-3-3---------0-0-2-2---0-0-0-2-2-3-3---|
D|-6-6-6---------------------------6-6-6---------------------------|
   1 + 2 + 3 + 4 + 1 + 2 + 3 + 4 + 1 + 2 + 3 + 4 + 1 + 2 + 3 + 4 +

G|-------------------------------------------------------------------|
D|o-----------------------------------------------------------------o|
A|o-----------------------------------------------------------------o|
D|--2-2-2-2-2-2-2-2-2-2-2-2-2-2-2-2-2-2-2-2-2-2-2-2-5-5-5-4-4-4-3-3--|
    1 + 2 + 3 + 4 + 1 + 2 + 3 + 4 + 1 + 2 + 3 + 4 + 1 + 2 + 3 + 4 +

G|-----------------------------------------------------------------|
D|-----------------------------------------------------------------|
A|-------0-0-2-2---0-0-0-2-2-3-3---------0-0-2-2---0-0-0-2-2-3-3---|
D|-6-6-6---------------------------6-6-6---------------------------|
   1 + 2 + 3 + 4 + 1 + 2 + 3 + 4 + 1 + 2 + 3 + 4 + 1 + 2 + 3 + 4 +

Solo #2 5:52
G|-------------------------------------------------------------------|
D|o-----------------------------------------------------------------o|
A|o-----------------------------------------------------------------o|
D|--2-2-2-2-2-2-2-2-2-2-2-2-2-2-2-2-2-2-2-2-2-2-2-2-2-2-2-2-2-2-2-2--|
    1 + 2 + 3 + 4 + 1 + 2 + 3 + 4 + 1 + 2 + 3 + 4 + 1 + 2 + 3 + 4 +

Outro
6:06
G|-------------------------------------------------------------------|
D|o-----------------------------------------------------------------o|
A|o-----------------------------------------------------------------o|
D|--2-----5-4-----3-2---222-222-222-2-----5-4-----3-2---222-222-222--|
    1 + 2 + 3 + 4 + 1 + 2 + 3 + 4 + 1 + 2 + 3 + 4 + 1 + 2 + 3 + 4 +

G|-------------------------------------------------------------------|
D|o-----------------------------------------------------------------o|
A|o-----------------------------------------------------------------o|
D|--2-----5-4-----3-2---2222222222222-----5-4-----3-2---222222222222-|
    1 + 2 + 3 + 4 + 1 + 2 + 3 + 4 + 1 + 2 + 3 + 4 + 1 + 2 + 3 + 4 +

G|-----------------------------------------------------------------|
D|-----------------------------------------------------------------|
A|-----------------------------------------------------------------|
D|-2-----5-4-----3-2---222-222-222-2-----5-4-----3-2---------------|
   1 + 2 + 3 + 4 + 1 + 2 + 3 + 4 + 1 + 2 + 3 + 4 + 1 + 2 + 3 + 4 +
Tabbed by Dave Vucko

            
            
Suggest correction
Creating personal tab
Creating personal tab
You can edit any tab online and save it as your Personal.

You can edit, replace or remove any tab part or add personal notes – all changes will be seen only by you.

Personal tabs can be accessed anytime from any device, even offline.
Learn more »
comments
print report bad tab
2 comments total.
0 reply
ozrickdog 10 Dec 11, 2013 03:15 AM, edited at 08:35 am

thanks for the great tab,really accurate. only problem is it's played in standard tuning on guitar, not sure if its in Dropped d on bass or not. just needs to change by two frets on the lowest string if it is...

guest
You may want to rate the tab now too:
select rating
Wanna post a correction for this tab? Suggest correction