Oops, an error
Loading. Please wait.
We have Chord Pro version of Buried Alive.
It's the closest thing you can get to the original song and it has interactive parts. Check out the tab »
×
2,145 views 1 this week
no commentswrite comment
1 2 3 4 5
x 3
add to favorites
×
Save as Personal and add changes to this tab that will be seen only by you. Learn more ›
×
You can save this tab as Personal to edit and correct it or add notes. All changes will be seen only by you. Learn more »
launch autoscroll
font size
0
reset
guitar tuner
backing track
0:00
0:00
edit
Autoscroll
slow
fast
+/-
esc
set tempo
stop
Author
Difficulty
Artist:Avenged Sevenfold
Song:Buried Alive
Album:Nightmare

Tabbed by: Alex Kehoe
www.alexkehoe.co.uk
To watch how this is played check out the video on my site



INTRO Part 1.
G|------9--7--------------------9----7--7--9-10--9-|
D|7--10--------10-9-7---7---10---------------------|
A|-------------------------------------------------|
D|-------------------------------------------------|

G|-------7------7-------------7------7---------------------------------|
D|7--9-10---7-9---10--7--9-10---7-9---10---7----5-----3---7----5-----3-|
A|---------------------------------------------------------------------|
D|---------------------------------------------------------------------|

INTRO Part 2./Verse
x8
G|-----------------------------------------|
D|-------------------0-2-3--2--2--0--------|
A|-0--0-0--2-3--3---------------------3--2-|
D|-----------------------------------------|

BRIDGE
G|------------------------------------------------------------|
D|-3--3-5-3--2--2-3-2----------------3--3-5-3--2--2-3-2-------|
A|--------------------5--5-5-0-2-3-5--------------------5---7-|
D|------------------------------------------------------------|

CHORUS
X2
G|-----------------------------|
D|-----------------------------|
A|-----------------------------|
D|-7--7-7--2-3-3--5-5-5-7--9-9-|

G|----------------------------|
D|----------------------------|
A|-7--5--8--7-----------------|
D|----------------------------|

X2
G|-----------------------------|
D|-----------------------------|
A|-----------------------------|
D|-7--7-7--2-3-3--5-5-5-7--9-9-|

G|-------------------|
D|-------------------|
A|-7--7--7--5--8--7--|
D|-------------------|

VERSE 2
x8
G|-----------------------------------------|
D|-------------------0-2-3--2--2--0--------|
A|-0--0-0--2-3--3---------------------3--2-|
D|-----------------------------------------|


BRIDGE
G|------------------------------------------------------------|
D|-3--3-5-3--2--2-3-2----------------3--3-5-3--2--2-3-2-------|
A|--------------------5--5-5-0-2-3-5--------------------5---7-|
D|------------------------------------------------------------|

CHORUS
X2
G|-----------------------------|
D|-----------------------------|
A|-----------------------------|
D|-7--7-7--2-3-3--5-5-5-7--9-9-|

G|----------------------------|
D|----------------------------|
A|-7--5--8--7-----------------|
D|----------------------------|

X2
G|-----------------------------|
D|-----------------------------|
A|-----------------------------|
D|-7--7-7--2-3-3--5-5-5-7--9-9-|

G|----------------------------------------------------|
D|----------------------------------------------------|
A|-7-----7-------7--5--8--7---7-----7----7--5---8---7-|
D|----------------------------------------------------|

SOLO
G|-------------------------------------|
D|-------------------------------------|
A|-000000223333333355555555--------0-2-|
D|--------------------------5555-5-----|

G|----------------------------------------|
D|----------------------------------------|
A|-000000223333333355555555----7--5--8--7-|
D|----------------------------------------|

G|-------------------------------------|
D|-------------------------------------|
A|-000000223333333355555555--------0-2-|
D|--------------------------5555-5-----|

G|----------------------------------------|
D|----------------------------------------|
A|-000000223333333355555555----7--5--8--7-|
D|----------------------------------------|

X4
G|---------------------------------|
D|---------------------------------|
A|---------------------------------|
D|-777777-22333333-55--------------|

G|---------------------------------|
D|---------------------------------|
A|---------------------------------|
D|-777777776666666655555555444444-3

G|----------------------------|
D|----------------------------|
A|-7--5--8--7--0--------------|
D|----------------------------|

OUTRO
x3
G|-----------------------------------|
D|-----------------------------------|
A|-----------------------------------|
D|--2222 Continuous until 5555444433

x2
G|---------------------------------|
D|---------------------------------|
A|-2-33-55--3-55-22----------------|
D|---------------------------------|

x2
G|-----------------------------------|
D|-----------------------------------|
A|-----------------------------------|
D|--2222 Continuous until 5555444433

x2
G|---------------------------------|
D|---------------------------------|
A|-2-33-55--3-55-22----------------|
D|---------------------------------|

Until the End
G|-------------------------------------|
D|-------------------------------------|
A|-------------------------------------|
D|--2222 Continuous until 2--5-4---3-2-|


Tabbed by Alex Kehoe

www.alexkehoe.co.uk

Join the mailing list on my site to receive my EXCLUSIVE article "How Do You Change Your 
Amateur Band Into A Professional Band?"

To watch how this is played please check out the video on my site.

| /  slide up
| \  slide down
| h  hammer-on
| p  pull-off
| ~  vibrato
| +  harmonic
| x  Mute note
Suggest correction
Creating personal tab
Creating personal tab
You can edit any tab online and save it as your Personal.

You can edit, replace or remove any tab part or add personal notes – all changes will be seen only by you.

Personal tabs can be accessed anytime from any device, even offline.
Learn more »
Give kudos to tab author, rate the tab!
1 2 3 4 5
comments
print report bad tab
guest
You may want to rate the tab now too:
select rating
Wanna post a correction for this tab? Suggest correction