Oops, an error
Loading. Please wait.

Carry On bass

version 1
version 1

Whole song

Interactive

11,172 views 27 this week
1 commentread comment
1 2 3 4 5
x 6
add to favorites
×
Save as Personal and add changes to this tab that will be seen only by you. Learn more ›
×
You can save this tab as Personal to edit and correct it or add notes. All changes will be seen only by you. Learn more »
launch autoscroll
font size
0
reset
guitar tuner
backing track
0:00
0:00
edit
Autoscroll
slow
fast
+/-
esc
set tempo
stop
G|----------------------------------------------------------|
D|----------------------------------------------------------|
A|----------------------------------------------------------|
D|-0---0-2-3-------10---3-2-0-------8---8-8-3---3-3-7-------|

0:13 x3
G|-------------------------------------------------------------------|
D|o-----------------------------------------------------------------o|
A|o-----------------------------------------------------------------o|
D|--0---0-0-0-0-0-0-0-0-0-0-0-0-0-0-0-0-0-0-0-0-0-0-0-0-0-0-2---3----|

G|-----------------------------------------------------------------|
D|-----------------------------------------------------------------|
A|-----------------------------------------------------------------|
D|-0---0-0-0-0-0-0-0-0-0-0-0-0-0-0-0-0-0-0-0-0-0-0-0-0-0-0-0-------|

0:28
G|o|-------------------------------------------------------------------|
D|-|o-----------------------------------------------------------------o|
A|-|o-----------------------------------------------------------------o|
D|o|--2---2-2-2-2-2-2-2---2---2---2---2---2-2-2-2-2-2-2---2---4---5----|

G|----------------------------------------------------------o|
D|-----------------------------------------------------------|
A|-----------------------------------------------------------|
D|-0--------------------------------------------0---5---0---o|

0:49 faint
G|------------------------------------------|
D|------------------------------------------|
A|------------------------------------------|
D|-7--------6--------5--------4-3-2-0-------|

0:56
G|-----------------------------------------------------------------|
D|-----------------------------------------------------------------|
A|-----------------------------------------------------------------|
D|-0---0-0---0-0---0---0-0---0-0---3---3-3---3-3---3---3-3---3-3---|

G|-----------------------------------------------------------------------------|
D|-----------------------------------------------------------------------------|
A|-----------------------------------------------------------------------------|
D|-10---10-10---10-10---10-10-10-10-10-10-10---0---0-0---0-0---0---0-0---0-0---|

G|-------------------------------------------------------------|
D|-------------------------------------------------------------|
A|-------------------------------------------------------------|
D|-8---8---8---8-8-8---8-8-7---3---3-3---3-3---3---3-3---3-3---|

1:07
G|------------------------------------------------------------------------------|
D|------------------------------------------------------12-10-------12-10-------|
A|---------------------------------/12---12---12---12---------12-10-------12-10-|
D|-7-7-7-7-7-7-7-7-7-7-7-7-7-7-7-7----------------------------------------------|

1:11
G|-----------------------------------------------------------------|
D|-----------------------------------------------------------------|
A|-----------------------------------------------------------------|
D|-2---2-2---2-2---2---2-2---2-2---5---5-5---5-5---5---5-5---5-5---|

G|-----------------------------------------------------------------------------|
D|-----------------------------------------------------------------------------|
A|-----------------------------------------------------------------------------|
D|-12---12-12---12-12---12-12-12-12-12-12-12---2---2-2---2-2---2---2-2---2-2---|

G|--------------------------------------------------------------------------|
D|--------------------------------------------------------------------------|
A|--------------------------------------------------------------------------|
D|-10---10--------------10---10-10---10-9---5---5-5---5-5---5---5-5---5-5---|

G|--------------------------------------------------------------|
D|---------------------------------------------9--------9-------|
A|---------------------------------------9---9------9-------9---|
D|-9---9-9---9-9---9---9-9---9-9---9---9------------------------|

1:24
G|-----------------------------------------------------------------|
D|-----------------------------------------------------------------|
A|-----------------------------------------------------------------|
D|-0---0-0-0-0-0-0-0-0-0-0-0-0-0-0-0-0-0-0-0-0-0-0-0-0-0-0-2---3---|

G|-----------------------------------------------------------------|
D|-----------------------------------------------------------------|
A|-----------------------------------------------------------------|
D|-0---0-0-0-0-0-0-0-0-0-0-0-0-0-0-0-0-0-0-0-0-0-0-0-0-0-0-0-------|

1:31
G|o|-------------------------------------------------------------------|
D|-|o-----------------------------------------------------------------o|
A|-|o-----------------------------------------------------------------o|
D|o|--2---2-2-2-2-2-2-2---2---2---2---2---2-2-2-2-2-2-2---2---4---5----|

G|----------------------------------------------------------o|
D|-----------------------------------------------------------|
A|-----------------------------------------------------------|
D|-0--------------------------------------------0---5---0---o|

G|------------------------------------------|
D|------------------------------------------|
A|------------------------------------------|
D|-7--------6--------5--------4-3-2-0-------|

2:00
G|-----------------------------------------------------------------|
D|-----------------------------------------------------------------|
A|-----------------------------------------------------------------|
D|-0---0-0---0-0---0---0-0-0-0-2---3---3-3---3-3---3---3-3---3-3---|

G|---------------------------------------------------------------------------------|
D|---------------------------------------------------------------------------------|
A|---------------------------------------------------------------------------------|
D|-10---10-10-10-10-10---10-10-10-10-10-10-10-10---0---0-0---0-0---0---0-0---0-0---|

G|--------------------------------------------------------------|
D|--------------------------------------------------------------|
A|--------------------------------------------------------------|
D|-8---8-8---8---8-8-8--8-8-8---3---3-3---3-3---3---3-3---3-3---|

G|------------------------------------------------------------------------------|
D|------------------------------------------------------12-10-------12-10-------|
A|---------------------------------/12---12---12---12---------12-10-------12-10-|
D|-7-7-7-7-7-7-7-7-7-7-7-7-7-7-7-7----------------------------------------------|

2:14
G|-----------------------------------------------------------------|
D|-----------------------------------------------------------------|
A|-----------------------------------------------------------------|
D|-2---2-2---2-2---2---2-2---2-2---5---5-5---5-5---5---5-5---5-5---|

G|-----------------------------------------------------------------------------|
D|-----------------------------------------------------------------------------|
A|-----------------------------------------------------------------------------|
D|-12---12-12---12-12---12-12-12-12-12-12-12---2---2-2---2-2---2---2-2---2-2---|

G|-----------------------------------------------------------------------------|
D|-----------------------------------------------------------------------------|
A|-----------------------------------------------------------------------------|
D|-10---10-10---10-10---10-10-10-10-10-10-10---5---5-5---5-5---5---5-5---5-5---|

G|----------------------------------------------------------------------------|
D|----------------------------------------------------------------------------|
A|---------------------------------/14---14-14---14---14-14-14-14-14-14-14-14-|
D|-9---9-9---9-9---9---9-9---9-9----------------------------------------------|

2:28
G|-----------------------------------------------------------------|
D|-----------------------------------------------------------------|
A|-----------------------------------------------------------------|
D|-2---2---2------2---2-2-2---12---12---12------12---12-12-12------|

G|-----------------------------------------------------------------|
D|-----------------------------------------------------------------|
A|-----------------------------------------------------------------|
D|-5---5---5------5---5-5-5---10---10---10------10---10-10-10------|

G|-----------------------------------------------------------------|
D|-----------------------------------------------------------------|
A|-----------------------------------------------------------------|
D|-2---2---2------2---2-2-2---12---12---12------12---12-12-12------|

2:39
G|-----------------------------------------------------------------|
D|-----------------------------------------------------------------|
A|-----------------------------------------------------------------|
D|-9---9---9------9---9-9-9---10---10---10------10---10-10-10------|

G|-------------------------------------------------------|
D|-------------------------------------------------------|
A|-------------------------------------------------------|
D|-7---7---7------7---7-7-7---5---5---5------5---5-5-5---|

2:46
G|--------------------------------------------------------------|
D|--------------------------------------------------------------|
A|--------------------------------------------------------------|
D|-9---9---9------9---9-9-9---2---2---2------12---12-12-12------|

2:49
G|----------------------------------------------------------|
D|----------------------------------------------------------|
A|----------------------------------------------------------|
D|-10---10---10------10---10-10-10---7---7---7--------14----|

G|-------------------------------------------------|
D|-------------------------------------------------|
A|-------------------------------------------------|
D|-12-12-12-12-12-12-12-12-12-12-12-12-12-12-12-12-|

G|----------------------------------------|
D|----------------------------------------|
A|----------------------------------------|
D|-5-5-5-5-9-------4-4-4-4-5-------2------|

3:00
G|-----------------------------------------------------------------|
D|-----------------------------------------------------------------|
A|-----------------------------------------------------------------|
D|-4-5-2---------------4-5-2---------------4-5-2---------------4-5-|

3:11 x4
G|-------------------------------------------------------------------|
D|o-----------------------------------------------------------------o|
A|o-----------------------------------------------------------------o|
D|--0---0-0-0-0-0-0-0-0-0-0-0-0-0-0-0-0-0-0-0-0-0-0-0-0-0-0-2---3----|

3:26
G|-----------------------------------------------------------------|
D|-----------------------------------------------------------------|
A|-----------------------------------------------------------------|
D|-0---0-0---0-0---0---0-0---0-0---3---3-3---3-3---3---3-3---3-3---|

G|----------------------------------------------------------------------------|
D|----------------------------------------------------------------------------|
A|----------------------------------------------------------------------------|
D|-10---10-10---10-10---10---10-10-10-10-10---0---0-0---0-0---0---0-0---0-0---|

G|-----------------------------------------------------------------|
D|-----------------------------------------------------------------|
A|-----------------------------------------------------------------|
D|-8---8-8---8-8---8---8-8-8-8-8---3---3-3---3-3---3---3-3---3-3---|

G|------------------------------------------------------------------------------|
D|------------------------------------------------------11-11-11-11-12-12-14-14-|
A|---------------------------------/12---12---12---12---------------------------|
D|-7-7-7-7-7-7-7-7-7-7-7-7-7-7-7-7----------------------------------------------|

3:39
G|-----------------------------------------------------------------|
D|-----------------------------------------------------------------|
A|-----------------------------------------------------------------|
D|-2---2-2---2-2---2---2-2---2-2---5---5-5---5-5---5---5-5---5-5---|

G|-----------------------------------------------------------------------------------------|
D|-----------------------------------------------------------------------------------------|
A|-----------------------------------------------------------------------------------------|
D|-12---12-12---12-12---12-12-12-12-12-12-12-12---14---14-14---14-14---14--14-14---14-12---|

G|--------------------------------------------------------------------------------|
D|--------------------------------------------------------------------------------|
A|--------------------------------------------------------------------------------|
D|-10---10-10---10-10---10-10-10-10-10-10-10-10---5---5-5---5-5---5---5-5---5-5---|

3:50
G|-------------------------------------------------16-------16------|
D|----------------------------------------16-16-16-------16------16-|
A|---------------------------------/14-14---------------------------|
D|-9---9-9---9-9---9---9-9---9-9------------------------------------|

3:54
G|---------------------------------------------------------|
D|---------------------------------------------------------|
A|---------------------------------------------------------|
D|-10-------10-10-10-9-------9---9---0---0---5-4---5-4-4---|

G|----------------------------------------|
D|----------------------------------------|
A|----------------------------------------|
D|-10-------10-10-10-9-------9---9-/-12---|
Tabbed by Dave Vucko
Suggest correction
Creating personal tab
Creating personal tab
You can edit any tab online and save it as your Personal.

You can edit, replace or remove any tab part or add personal notes – all changes will be seen only by you.

Personal tabs can be accessed anytime from any device, even offline.
Learn more »
comments
print report bad tab
1 comment total.
0 reply
njtaylor1942 33 Jan 19, 2017 05:38 PM

Great tab. It would be just a little bit better if it had counting like the newer ones, but it's still better than most.

guest
You may want to rate the tab now too:
select rating
Wanna post a correction for this tab? Suggest correction