Oops, an error
Loading. Please wait.

Carry On Tab

version 2
version 2

Whole song

Interactive

12,916 views 9 this week
1 commentread comment
1 2 3 4 5
accurate
x 3
add to favorites
launch autoscroll
font size
0
reset
how to read this tab
guitar tuner
Autoscroll
slow
fast
+/-
esc
set tempo
stop
Help us to improve Ultimate-Guitar.com Take our survey!
×
Author
Difficulty
intermediate
My Very first tab, if you see any mistakes leave a comment, cause I did it by ear
Tabbed by: FutureSyn42510
This is the new Avenged Sevenfold song for the Black Ops 2 game.

E|-------------------------------------------------------|
B|-----12-13-12-----13-12-11--12-13-15-14-13-15-16-------|
G|--9~-----------7~--------------------------------------|
D|-------------------------------------------------------|
A|-------------------------------------------------------|
D|-------------------------------------------------------|

Right after the intro there is just rhythm to the verse and a pickscape

Solo 1
E|-----------13-------------------15~~----------13-------------------------|
B|--17----15----16----12-11-14-15------12----16----12----------------------|
G|-----14----------13---------------------14----------11----9-11-13-15-----|
D|------------------------------------------------------10-----------------|
A|-------------------------------------------------------------------------|
D|-------------------------------------------------------------------------|

E|----11--------------------------------------------------|
B|-------12-----------------------12----------------------|
G|----------10---11-13-15-12----11---13-------------------|
D|-------------9-------------14---------7~~<--Whammy here-|
A|--------------------------------------------------------|
D|--------------------------------------------------------|

Verse (00:28)

E|---------------------------------------------------------------|
B|---------------------------------------------------------------|
G|---------------------------------------------------------------|
D|-------2-3-1-2---------2-3-1-2---------2-3-1-2---------2-3-1-2-|
A|-------2-3-1-2---------2-3-1-2---------2-3-1-2---------2-3-1-2-|
D|000000-2-3-1-2-0000000-2-3-1-2-0000000-2-3-1-2-0000000-2-3-1-2-|
PM......      .......       .......       .......

The lead guitar here does artificial harmonics, rhythm keeps doing verse

E|--------5*------------|------------------------------------------|   After repeating
B|-----4*----7*-whammy--|------whammy-on-6-------------------------|        Verse
G|--5*------------------|--------------------------------- <-------|   Do this
D|----------------------|------------------------------------------|
A|----------------------|-----5h6----------------------------------|
D|----------------------|------------------------------------------|

Pre-chorus (00:50)

E|-------------------------------------------------------|
B|--------------------------------16~--------------------|
G|-7~~--6/9/5-4~~-----13-14-15-16------------------------|
D|-------------------------------------------------------|
A|-------------------------------------------------------|
D|-------------------------------------------------------|

Chorus (00:57)
(Pick on slides)
E|------------------------17-19-18-17-19-----------------|
B|-10~/13/15/16-17-18-19~--------------------------------|
G|-------------------------------------------------------| X2 except for second ending
D|-------------------------------------------------------|
A|-------------------------------------------------------|
D|-------------------------------------------------------|

2nd ending

E|--/17-16-15-14-16~~~~----------------------------------|
B|-------------------------------------------------------|
G|-------------------------------------------------------|
D|-------------------------------------------------------|
A|-------------------------------------------------------|
D|-------------------------------------------------------|

Repeat verse
Repeat pre-chorus
Repeat chorus

Solo 2 (2:29)

Normally, you would be sweeping for this part, like this

E|------12------12-------13------13------11--------------|
B|----11--11--11--11---11--14--14--14--12--12------------|
G|--12------12------12-------13------13------11----------|
D|-------------------------------------------------------|
A|-------------------------------------------------------|
D|-------------------------------------------------------|

But i think its easier to do this

E|--------------------------------------------------------------|
B|-12-13-14-15-X4-14-15-16-17-X4-15-16-17-18-X4-14-15-16-17-X4--|
G|--------------------------------------------------------------|
D|--------------------------------------------------------------|
A|--------------------------------------------------------------|
D|--------------------------------------------------------------|

E|-------------------------------------------------------|
B|-14-15-16-17-X4-15-16-17-18-X4-10-11-12-13-X4-15-------|
G|-------------------------------------------------------|
D|-------------------------------------------------------|
A|-------------------------------------------------------|
D|-------------------------------------------------------|

E|------------------------------------------------------------|
B|-12-13-14-15-X4-10-11-12-13-X4-9-10-11-12-X4--8-9-10-11-X4--|
G|------------------------------------------------------------|
D|------------------------------------------------------------|
A|------------------------------------------------------------|
D|------------------------------------------------------------|

E|----------------------------------------------------------|
B|-7-8-9-10-x2-6-7-8-9 x2-5-6-7-8-x4-4-5-6-7-x2-5-6-7-8-x2--|
G|----------------------------------------------------------|
D|----------------------------------------------------------|
A|----------------------------------------------------------|
D|----------------------------------------------------------|

E|-------------------------------------------------------|
B|-6-7-8-9-x4-7-8-9-10-x2-8-9-10-11-12-------------------|
G|-------------------------------------------------------|
D|-------------------------------------------------------|
A|-------------------------------------------------------|
D|-------------------------------------------------------|

Drum solo

E|-------------------------------------------------------|
B|-------------------------------------------------------|
G|-------------------------------------------------------|
D|-2-3-1----2-3-1----2-3-1-------------------------------|
A|-2-3-1----2-3-1----2-3-1-------------------------------|
D|-2-3-1----2-3-1----2-3-1-------------------------------|

sorry I cant figure out this solo, but if this gets a lot of good ratings
I will figure it out the best i can, i can give you the tremolo part though

      (17)              (15)             (11)                  (10)
E|-------------------------------------------------------
B|-1717171717171717/13/151515151515/12/111111111111/9/10101010101010-
G|-------------------------------------------------------|
D|-------------------------------------------------------|
A|-------------------------------------------------------|
D|-------------------------------------------------------|
PM ....................................................................

Repeat Chorus

Outro (3:55)

E|-------------------------------------------------------------------|
B|-------------------------------------------------------------------|
G|11-11-11-10-9-8-9-8-11/13/10/8-7-6--12-13-13-13-12-11-12-14-15~~---|
D|-------------------------------------------------------------------|
A|-------------------------------------------------------------------|
D|-------------------------------------------------------------------|

Feel free to leave comments, song requests, a decent rating, I would appreciate it a lot
Avenged Sevenfold foREVer
Suggest correction
What's this?
You can suggest a correction to this tab. Community and Mods will review your correction and vote to approve or reject it.
comments
We did not receive enough feedback on this tab! Please rate:
print report bad tab
1 2 3 4 5
1 comment total.
0 reply
FutureSyn42510 56 wrote on May 18 2013, 04:21 pm

idk what I was thinking with the palm mute in the 3rd solo. dont mute that

guest
You may want to rate the tab now too:
select rating
Please do not post tabs as comments. Select "correction" instead!