Oops, an error
Loading. Please wait.

Chapter Four Tab

version 1
version 1
313,846 views 288 this week
70 commentsread comments
1 2 3 4 5
excellent!
x 140
add to favorites
launch autoscroll
font size
0
reset
how to read this tab
guitar tuner
Autoscroll
slow
fast
+/-
esc
set tempo
stop
Help us to improve Ultimate-Guitar.com Take our survey!
×
Author
Tuning
D G C F A D
Avenged Sevenfold - Chapter Four


[Intro]

D|-----------------------------------------|
A|-----------------------------------------|
F|-----------------------------------------| 
C|-0-----2-----3-----------0-----7-----8---| 
G|-0-----2-----3-----------0-----7-----8---|
D|-0-----2-----3-----------0-----7-----8---|(x2)

D|-------------------------------|
A|-------------------------------|
F|-------:-:-:-------:-:-:-:-:---|
C|-0-----0-0-0-0-----0-0-0-0-0---|  
G|-0-----0-0-0-0-----0-0-0-0-0---|
D|-0-----0-0-0-0-----0-0-0-0-0---|(x8)


[Pre-Verse]

Guitar One:
D|----------------------------------------------------------------------------|
A|----------------------------------------------------------------------------|
F|----------------------------------------------------------------------------|
C|----------/5----------5/7--5----5--5/7----------/5-----------2--3----2--3---| 
G|--5--7--8-----8--7-3---------8---------5--7--8------8--7--1-------3---------|
D|----------------------------------------------------------------------------|


Guitar Two:
D|-------------------------------------------------------------------------|
A|-------------------------------------------------------------------------|
F|-------------------------------------------------------------------------|
C|-----5--7-/8--7--5----10--8-7--8--10----5--7-/8--7--5-----5--7----5--7---|  
G|--8----------------7-----------------8-----------------5-------7---------|
D|-------------------------------------------------------------------------|(x2) 


[Verse]

Both Guitars:
D|----------------------------------------------------------------------------------------|
A|----------------------------------------------------------------------------------------|
F|--------------------------------------------3---x-x-x-3--x-x-x-3--x-x-------------------| 
C|--0---x-x-x-0--x-x-x-0--x-x-3-3-3-3-2-2-2-2-3---x-x-x-3--x-x-x-3--x-x--3-3-3-3-2-2-2-2--|  
G|--0---x-x-x-0--x-x-x-0--x-x-3-3-3-3-2-2-2-2-1---x-x-x-3--x-x-x-3--x-x--3-3-3-3-2-2-2-2--| 
D|--0---x-x-x-0--x-x-x-0--x-x-3-3-3-3-2-2-2-2----------------------------3-3-3-3-2-2-2-2--|(x2)


[Chorus]

D|--------------------------------------------------------------------|
A|--------------------------------------------------------------------|
F|--------------------------------------------------------------------|
C|--0-0-0-0-0-0-0-0-8-8-8-8-8-8-8-8-3-3-3-3-3-3-3-3-2-2-2-2-2-2-2-2---|
G|--0-0-0-0-0-0-0-0-8-8-8-8-8-8-8-8-3-3-3-3-3-3-3-3-2-2-2-2-2-2-2-2---|
D|--0-0-0-0-0-0-0-0-8-8-8-8-8-8-8-8-3-3-3-3-3-3-3-3-2-2-2-2-2-2-2-2---|

D|--------------------------------------------------------------------|
A|--------------------------------------------------------------------|
F|--------------------------------------------------6-6-6-6-6-6-6-6---|
C|--0-0-0-0-0-0-0-0-8-8-8-8-8-8-8-8-3-3-3-3-3-3-3-3-6-6-6-6-6-6-6-6---|
G|--0-0-0-0-0-0-0-0-8-8-8-8-8-8-8-8-3-3-3-3-3-3-3-3-4-4-4-4-4-4-4-4---|
D|--0-0-0-0-0-0-0-0-8-8-8-8-8-8-8-8-3-3-3-3-3-3-3-3-------------------|

Guitar One:
D|---------------------------------------------------------|
A|---------------------------------------------------------|
F|---------------------------------------------------------| 
C|-7---7-----7---5-----2-------2---3---3-----3---5-----2---| 
G|-7---7-----7---5-----2-------2---3---3-----3---5-----2---|
D|-7---7-----7---5-----2-------2---3---3-----3---5-----2---|(x2)


Guitar Two:
D|-------------------------------------------------------------------------|
A|-------------------------------------------------------------------------|
F|-14---14---14-14-----12----9-----9-10---10---10---10---12---14---15-14---|
C|--x----x----x--x------x----x-----x--x----x----x----x----x----x----x--x---|
G|-12---12---12-12-----10----7-----7--8----8----8----8---10---12---13-12---|
D|-------------------------------------------------------------------------|

D|------------------------------------------------------------------|
A|------------------------------------------------------------------|
F|-14---14---14-14-----12----9-----9-10---10---10---10---12-----9---|
C|--x----x----x--x------x----x-----x--x----x----x----x----x-----x---|
G|-12---12---12-12-----10----7-----7--8----8----8----8---10-----7---|
D|------------------------------------------------------------------|

Both Guitars:
D|-------------------------------------------------------------------|
A|-------------------------------------------------------------------|
F|-------------------------------------------------------------------|
C|-2---2-2-2-2-2-2-2-2-2-2-2-2-2-2-2-2-2-2-2-2-2-2-2-2-2-2-2-2-2-2---|
G|-2---2-2-2-2-2-2-2-2-2-2-2-2-2-2-2-2-2-2-2-2-2-2-2-2-2-2-2-2-2-2---|
D|-2---2-2-2-2-2-2-2-2-2-2-2-2-2-2-2-2-2-2-2-2-2-2-2-2-2-2-2-2-2-2---|
      : : : : : : : : : : : : : : : : : : : : : : : : : : : : : :


[Pre-Chorus]

Guitar One:
D|-------------------------------------------------6---------------------------|
A|--------6---10---8---6-------6~\----------6---10-------10---8h10p8-----------|
F|---/7--------------------9-----------/7----------------------------9---10\---|
C|-----------------------------------------------------------------------------|
G|-----------------------------------------------------------------------------|
D|-----------------------------------------------------------------------------| 
                                                                                   
D|-----------------------------------------------------------------------------| 
A|--------6---10---8---6---------------6---10----------6---10~\----------------|
F|---/7--------------------9\---/7--------------/9-----------------------------|
C|-----------------------------------------------------------------------------|
G|-----------------------------------------------------------------------------|
D|-----------------------------------------------------------------------------|(x2)

Guitar Two:
D|-------------------------------------------------------------------------------|
A|----------------------------------------------------/8-------------------------|
F|--------7---10---9---7----5---7~\----------7---10--------10---9h10p9------7\---|
C|---/7---------------------------------/7-----------------------------10--------|
G|-------------------------------------------------------------------------------|
D|-------------------------------------------------------------------------------|
                                                                                     
D|-------------------------------------------------------------------------------| 
A|-------------------------------------------------------------------------------|
F|--------7---10---9---7---5\----------7---10-----------7---10~\-----------------|
C|---/7-------------------------/8--------------/10------------------------------|
G|-------------------------------------------------------------------------------|
D|-------------------------------------------------------------------------------|(x2)

Guitar Three (Overdubbing):
D|-------------------------------------------------------------------|
A|-------------------------------------------------------------------|
F|-7-7-7-7-7-7-7-7-5-5-5-5-5-5-5-3---3-3-3-3-3-3-3-5-5-5-5-5-5-5-5---| 
C|-7-7-7-7-7-7-7-7-5-5-5-5-5-5-5-3---3-3-3-3-3-3-3-5-5-5-5-5-5-5-5---| 
G|-5-5-5-5-5-5-5-5-3-3-3-3-3-3-3-1---1-1-1-1-1-1-1-3-3-3-3-3-3-3-3---|
D|-------------------------------------------------------------------|(x4)


(Repeat Verse)

(Repeat Chorus) (Play post chorus only once instead of twice)


[Bridge]

D|----------------------------------------------------------------------|
A|----------------------------------------------------------------------|
F|------:-:-:-:------:-:-:-:------------:-:-:-:------:-:-:-:------------|
C|-/7---0-0-0-0-/7---0-0-0-0-/7/8\7\5---0-0-0-0-/7---0-0-0-0-/7/8\7\5---|  
G|-/7---0-0-0-0-/7---0-0-0-0-/7/8\7\5---0-0-0-0-/7---0-0-0-0-/7/8\7\5---|
D|-/7---0-0-0-0-/7---0-0-0-0-/7/8\7\5---0-0-0-0-/7---0-0-0-0-/7/8\7\5---|(x2)

D|-----------------------------------------|
A|-----------------------------------------|
F|-----------------------------------------|
C|-0-----2-----3-----------0-----7-----8---| 
G|-0-----2-----3-----------0-----7-----8---|
D|-0-----2-----3-----------0-----7-----8---|(x2)

Time change to 3/4:
D|----------------------------------------------------|
A|----------------------------------------------------|
F|----------------------------------------------------|
C|-0-0-0-0-0-0-/7-7-7-7-5-7-8-8-8-8-8-8-3-3-3-2-2-2---|
G|-0-0-0-0-0-0-/7-7-7-7-5-7-8-8-8-8-8-8-3-3-3-2-2-2---|
D|-0-0-0-0-0-0-/7-7-7-7-5-7-8-8-8-8-8-8-3-3-3-2-2-2---|(x4)


[Pre-Verse]

D|-----|
A|-----|
F|-.---|
C|-0---|
G|-0---|
D|-0---|


[Outro/Solo]

Guitar One:
D|-----------------------------------------------------15b(17)r15-15----------------|
A|----------------------------------------------/18------------------17-15----------|
F|-------------------9-/14--------------------------15---------------------14-15-17-|
C|-------------10-12-------15-14-12-15~---14-15-------------------------------------|
G|-------8-/12----------------------------------------------------------------------|
D|D-12-10---------------------------------------------------------------------------|
|
D|------------17b(18)r17b(18)r17-|
A|18-15--------------------------|
F|------15-17--------------------|
C|-------------------------------|
G|-------------------------------|
D|-------------------------------|


D|-13----------------------------------------------------15----------------------------------|
A|----17-------------------------18-17-13-------------17----18-17-13-------------------------|
F|-------15b(15.5)r15---------------------14----14-17----------------12b(13)r12--------------|
C|--------------------14b(15)r14-------------15---------------------------------14-15~---\---|
G|-------------------------------------------------------------------------------------------|
D|-------------------------------------------------------------------------------------------|

D|-------------------------------------------------------------------------------------17b(18)r17b(18)r17---|
A|------------------------------------17----20b(21)r20---20-17------------/18-15----------------------------|
F|----------------17---------------------14--------------------14h15h17----------15-17----------------------|
C|----------12-14----15---14---15~\-------------------------------------------------------------------------|
G|----------------------------------------------------------------------------------------------------------|
D|-12-14-15-------------------------------------------------------------------------------------------------|

D|-13------------------13----------------------------15---------------------------|
A|----15------------------15----------------------18----18-17-------17h13----15---|
F|-------14-15---\10---------15-14-------------17-------------17-15-------15------|
C|---------------------------------15-17p15h17------------------------------------|
G|--------------------------------------------------------------------------------|
D|--------------------------------------------------------------------------------|

D|------------17-------17-16b(17)-----\15~--------\------------------------|
A|--15b(16)-------15-------------------------------------------------------|
F|-----------------------------------------------------14-14-14-12-14-15---|
C|------------------------------------------------------x--x--x--x--x--x---|
G|-----------------------------------------------------12-12-12-10-12-13---|
D|-------------------------------------------------------------------------|

D|-----------------------------------------------------------------------|
A|-----------------------------------------------------------------------|
F|-14-14-14-14-12-10-9-9-9-9-7-9-7-7-7-7-7-7-10-10-10-12-12-12-----------|
C|--x--x--x--x--x--x-x-x-x-x-x-x-x-x-x-x-x-x--x--x--x--x--x--x-----------|
G|-12-12-12-12-10--8-7-7-7-7-5-7-5-5-5-5-5-5--8--8--8-10-10-10-----------|
D|-----------------------------------------------------------------------|(x2)
                                                                                    
D|-----------------------------------------------------------------------|
A|-----------------------------------------------------------------------|
F|-10-10-10-10-10-10-9-9-9-9-9-9-9-10-10-10-10-10-10-14-14-14-12-14-15---|
C|--x--x--x--x--x--x-x-x-x-x-x-x-x--x--x--x--x--x--x--x--x--x--x--x--x---|
G|--8--8--8--8--8--8-7-7-7-7-7-7-7--8--8--8--8--8--8-12-12-12-10-12-13---|
D|-----------------------------------------------------------------------|

Guitar Two:
D|-----------------------------------------------------------------------------------|
A|-----------------------------------------------------------------------------------|
F|-:-:-:--:--:--:---:-:-:---:-:-:--:--:--:---:-:-:---:-:-:--:--:--:---:-:-:---:-:-:--|
C|-0-0-0--0--0--0---0-0-0---3-3-3--3--3--3---3-3-3---8-8-8--8--8--8---8-8-8---3-3-3--|
G|-0-0-0--0--0--0---0-0-0---3-3-3--3--3--3---3-3-3---8-8-8--8--8--8---8-8-8---3-3-3--|
D|-0-0-0--0--0--0---0-0-0---3-3-3--3--3--3---3-3-3---8-8-8--8--8--8---8-8-8---3-3-3--|

D|------------------------|
A|------------------------|
F|:--:--:---:-:-:--:--:--:|
C|3--3--3---2-2-2--2--2--2|
G|3--3--3---2-2-2--2--2--2|
D|3--3--3---2-2-2--2--2--2|

D|----------------------------------------------------|
A|----------------------------------------------------|
F|----------------------------------------------------|
C|-0-0-0-0-0-0-/7-7-7-7-5-7-8-8-8-8-8-8-3-3-3-2-2-2---|
G|-0-0-0-0-0-0-/7-7-7-7-5-7-8-8-8-8-8-8-3-3-3-2-2-2---|
D|-0-0-0-0-0-0-/7-7-7-7-5-7-8-8-8-8-8-8-3-3-3-2-2-2---|

************************************

| x  Dead note
| h  Hammer-on
| p  Pull-off
| /  Slide up
| \  Slide down
| ~  Vibrato

************************************
Suggest correction
What's this?
You can suggest a correction to this tab. Community and Mods will review your correction and vote to approve or reject it.
comments
print report bad tab
70 comments total. Showing first comments.
+6 reply
racerx16us 17 wrote on April 11 2004, 12:00 am

very good and acurite tab i am glad to of looked it up and learned it because ive seen avenged sevenfold in concert and they ROCKED OUT !!

+2 reply
GodOfFire16 49 wrote on July 11 2004, 12:00 am

Yea man A7X rule live! Synyster rules

-1 reply
deathsk8erbuck 498 wrote on July 22 2004, 12:00 am

not a bad tab, i play it alot different though, ill try and get the tab up soon. sweet ass band though. saw em live MILWAUKEE, WI.

guest
You may want to rate the tab now too:
select rating
Please do not post tabs as comments. Select "correction" instead!