Oops, an error
Loading. Please wait.

Chapter Four bass

version 2
version 2
4,758 views 1 this week
2 commentsread comments
1 2 3 4 5
1 last vote to show rating
add to favorites
×
Save as Personal and add changes to this tab that will be seen only by you. Learn more ›
×
You can save this tab as Personal to edit and correct it or add notes. All changes will be seen only by you. Learn more »
launch autoscroll
font size
0
reset
guitar tuner
backing track
0:00
0:00
edit
Autoscroll
slow
fast
+/-
esc
set tempo
stop
Song: Chapter Four
Band: Avenged Sevenfold
Album: Waking The Fallen

Intro x2
G|---------------------------------|---------------------------------|
D|---------------------------------|---------------------------------|
A|---------------------------------|---------------------------------|
D|-0-----2-----3~------------------|-0-----7-----8~------------------|

Riff 1 x8
G|---------------------------------|
D|---------------------------------|
A|---------------------------------|
D|-0~----0-0-0-0~----0-0-0-0-0-----|

Riff 2 x2
G|---------------------------------|---------------------------------|
D|---------------------------------|---------------------------------|
A|-5---5-5---5-5---5---5-5---5-5---|-3---3-3---3-3---3---3-3---3-3---|
D|---------------------------------|---------------------------------|

G|---------------------------------|---------------------------------|
D|---------------------------------|---------------------------------|
A|-1---1-1---1-1---1---1-1---1-1---|-1---1-1---1-1---3---3-3---3-3---|
D|---------------------------------|---------------------------------|

Verse x2
G|---------------------------------|---------------------------------|
D|---------------------------------|---------------------------------|
A|---------------------------------|---------------------------------|
D|-0~----0-0-0-0~----0-0-0-0---0-0-|-3~----3-3---3---2---2---2---2---|

G|---------------------------------|---------------------------------|
D|---------------------------------|---------------------------------|
A|-1~----1-1-1-1~----1-1-1-1---1-1-|---------------------------------|
D|---------------------------------|-3~----3-3---3---2---2---2---2---|

Chorus
G|---------------------------------|---------------------------------|
D|---------------------------------|---------------------------------|
A|---------------------------------|-1---1---1---1---1---1---1---1---|
D|-0---0---0---0---0---0---0---0---|---------------------------------|

G|---------------------------------|---------------------------------|
D|---------------------------------|---------------------------------|
A|---------------------------------|---------------------------------|
D|-3---3---3---3---3---3---3---3---|-2---2---2---2---2---2---2---2---|

G|---------------------------------|---------------------------------|
D|---------------------------------|---------------------------------|
A|---------------------------------|-1---1---1---1---1---1---1---1---|
D|-0---0---0---0---0---0---0---0---|---------------------------------|

G|---------------------------------|---------------------------------|
D|---------------------------------|---------------------------------|
A|---------------------------------|-4---4---4---4---4---4---4---4---|
D|-3---3---3---3---3---3---3---3---|---------------------------------|

Post-Chorus                                                     rpt x2
G|---------------------------------|---------------------------------|
D|*--------------------------------|--------------------------------*|
A|*5---5---5---5-3~----3---3---3---|-1---1---1---1-3~----3---3---3--*|
D|---------------------------------|---------------------------------|

G|---------------------------------|---------------------------------|
D|---------------------------------|---------------------------------|
A|-0---0-0-0-0-0-0-0-0-0-0-0-0-0-0-|-0-0-0-0-0-0-0-0-0-0-0-0-0-0-0-0-|
D|---------------------------------|---------------------------------|

Riff 3 x2
G|---------------------------------|---------------------------------|
D|---------------------------------|---------------------------------|
A|-5---5---5---5---3---3---3---1~--|(1)--1---1---1---3---3---3---3---|
D|---------------------------------|---------------------------------|

G|---------------------------------|---------------------------------|
D|---------------------------------|---------------------------------|
A|-5---5---5---5---3---3---3---1~--|(1)--1---1---3~------3---3~------|
D|---------------------------------|---------------------------------|

Verse x2
Chorus x1
Post-Chorus x1
Riff 3 x1
Bridge x4
G|---------------------------------|
D|---------------------------------|
A|---------------------------------|
D|/7---0-0-0-0/7---0-0-0-0-7h8p7-5-|

Intro x2
Riff 4 x4 (3/4)
G|-------------------------|-------------------------|
D|-------------------------|-------------------------|
A|-------------------------|-------------------------|
D|-0---0-0-0-0-0---0-0/----|-7---7-7-7-7-7---5---7---|

G|-------------------------|-------------------------|
D|-------------------------|-------------------------|
A|-------------------------|-------------------------|
D|-8---8-8-8-8-8---8-8-8-8-|-3---3-3-3-3-2---2-2-2-2-|

Riff 2 x2
Interlude
G|-------------------------|
D|-------------------------|
A|-------------------------|
D|-0-----------------------|

Solo x2
G|---------------------------------|---------------------------------|
D|---------------------------------|---------------------------------|
A|---------------------------------|---------------------------------|
D|-000-0-0-0-----------0-0-0-------|-333-3-3-3-----------3-3-3-------|

G|---------------------------------|---------------------------------|
D|---------------------------------|---------------------------------|
A|---------------------------------|---------------------------------|
D|-888-8-8-8-----------8-8-8-------|-333-3-3-3-------222-2-2-2-------|

Outro (same as riff 4, repeat til' fade out)
G|-------------------------|-------------------------|
D|-------------------------|-------------------------|
A|-------------------------|-------------------------|
D|-0---0-0-0-0-0---0-0/----|-7---7-7-7-7-7---5---7---|

G|-------------------------|-------------------------|
D|-------------------------|-------------------------|
A|-------------------------|-------------------------|
D|-8---8-8-8-8-8---8-8-8-8-|-3---3-3-3-3-2---2-2-2-2-| End

            
            
Suggest correction
Creating personal tab
Creating personal tab
You can edit any tab online and save it as your Personal.

You can edit, replace or remove any tab part or add personal notes – all changes will be seen only by you.

Personal tabs can be accessed anytime from any device, even offline.
Learn more »
Give kudos to tab author, rate the tab!
1 2 3 4 5
comments
print report bad tab
2 comments total.
0 reply
Bass Shredder27 73 Oct 10, 2009 07:05 AM

what an easy song :P ty

0 reply
BassFreak102 510 Oct 11, 2009 03:52 PM

i know man but still kinda fun and awesome

guest
You may want to rate the tab now too:
select rating
Wanna post a correction for this tab? Suggest correction