Oops, an error
Loading. Please wait.

Chapter Four Tab

version 2
version 2
25,602 views 30 this week
20 commentsread comments
1 2 3 4 5
x 24
add to favorites
launch autoscroll
font size
0
reset
how to read this tab
guitar tuner
Autoscroll
slow
fast
+/-
esc
set tempo
stop
Help us to improve Ultimate-Guitar.com Take our survey!
×
CHAPTER FOUR
As recorded by Avenged Sevenfold
(From the 2003 Album WAKING THE FALLEN)
Words and Music by Avenged Sevenfold
Arranged by Avenged Sevenfold

Gtr I (D A D G B E) - 'Left Channel'
Gtr II (D A D G B E) - 'Right Channel'
Gtr III (D A D G B E) - 'Neutral Overdub'

[Intro]
     Fast Rock Q=187
     D5  E5  F5                D5  A5  Bb5
    4/4
     Gtrs I, II
e|-------------|------------|------------|---------||
B|o------------|------------|------------|--------o||
G|-------------|------------|------------|---------||
D|--0---2---3--|-(3)--------|-0---7---8--|-(8)-----||
A|o-0---2---3--|-(3)--------|-0---7---8--|-(8)----o||
E|--0---2---3--|-(3)--------|-0---7---8--|-(8)-----||

    D5
        PM--|          PM------|         PM--|          PM------|
e|---------------|-----------------|--------------|-------------------||
B|o--------------|-----------------|--------------|------------------o||
G|---------------|-----------------|--------------|-------------------||
D|--0---------0--|-(0)-------------|-0---------0--|-(0)---------------||
A|o-0---0-0-0-0--|-(0)-0-0-0-0-0---|-0---0-0-0-0--|-(0)-0-0-0-0-0----o||
E|--0---0-0-0-0--|-(0)-0-0-0-0-0---|-0---0-0-0-0--|-(0)-0-0-0-0-0-----||

D5
       PM--|           PM------|            PM--|           PM------|
E|---------------|------------------|-----------------|------------------
B|---------------|------------------|-----------------|------------------
G|---------------|------------------|-----------------|------------------
D|--0---------0--|--(0)-------------|---0----------0--|--(0)-------------
A|--0---0-0-0-0--|--(0)-0-0-0-0-0---|---0----0-0-0-0--|--(0)-0-0-0-0-0---
E|--0---0-0-0-0--|--(0)-0-0-0-0-0---|---0----0-0-0-0--|--(0)-0-0-0-0-0---

[Gtr III]
                                       ~~~~~~~~~~~~~~~~~~~~~
e|---------------|------------------|-----------------|------------------
B|---------------|------------------|-----------------|------------------
G|-10------------|-(10)-------------|-(10)------------|-(10)-------------
D|---------------|------------------|-----------------|------------------
A|--8------------|--(8)-------------|--(8)------------|--(8)-------------
E|---------------|------------------|-----------------|------------------

D5
         PM--|           PM------|            PM--|           PM------|
e|-----------------|------------------|-----------------|------------------||
B|-----------------|------------------|-----------------|------------------||
G|-----------------|------------------|-----------------|------------------||
D|---0----------0--|--(0)-------------|---0----------0--|--(0)-------------||
A|---0----0-0-0-0--|--(0)-0-0-0-0-0---|---0----0-0-0-0--|--(0)-0-0-0-0-0---||
E|---0----0-0-0-0--|--(0)-0-0-0-0-0---|---0----0-0-0-0--|--(0)-0-0-0-0-0---||

     ~~~~~~~~~~~~~~~~~~~~~~~~~~~~~~~~~~~~~~~~~~~~~~~~~~~~~~~~~~
e|-----------------|------------------|-----------------|------------------||
B|-----------------|------------------|-----------------|------------------||
G|-(10)------------|-(10)-------------|-(10)------------|-(10)-------------||
D|-----------------|------------------|-----------------|------------------||
A|--(8)------------|--(8)-------------|--(8)------------|--(8)-------------||
E|-----------------|------------------|-----------------|------------------||

[Pre-Verse]
     D5
[Gtr I]
e|---------------------|--------------------|
B|o--------------------|--------------------|
G|---------------------|--------------------|
D|------------------7--|--8-----7-----------|
A|o-/8-----10----------|----------------10--|
E|---------------------|--------------------|

[Gtr II]
e|---------------------|--------------------|
B|o--------------------|--------------------|
G|---------------------|--------------------|
D|------------------3--|-/5-----3-----------|
A|o--5------7----------|-----------------7--|
E|---------------------|--------------------|

[Gtr III]
e|---------------------|--------------------|
B|o--------------------|--------------------|
G|---7-7-7--7-(7)-7-7--|--7-7-7-7-(7)-7--7--|
D|---7-7-7--7-(7)-7-7--|--7-7-7-7-(7)-7--7--|
A|o--5-5-5--5-(5)-5-5--|--5-5-5-5-(5)-5--5--|
E|---------------------|--------------------|

   C5
e|--------------------|----------------------|
B|--------------------|----------------------|
G|--------------------|----------------------|
D|-------/10-------8--|-7-----8-------/10----|
A|-7------------------|----------------------|
E|--------------------|----------------------|

e|--------------------|----------------------|
B|--------------------|----------------------|
G|--------------------|----------------------|
D|--------/7-------5--|-3-----5---------7\---|
A|-3------------------|----------------------|
E|--------------------|----------------------|

e|--------------------|----------------------|
B|--------------------|----------------------|
G|-5-5-5---5-(5)-5-5--|-5-5-5-5-(5)-5---5----|
D|-5-5-5---5-(5)-5-5--|-5-5-5-5-(5)-5---5----|
A|-3-3-3---3-(3)-3-3--|-3-3-3-3-(3)-3---3----|
E|--------------------|----------------------|

   Bb5
e|-------------------|--------------------|
B|-------------------|--------------------|
G|-------------------|--------------------|
D|----------------7--|-/8-----7-----------|
A|-8-----10----------|----------------10--|
E|-------------------|--------------------|

e|-------------------|--------------------|
B|-------------------|--------------------|
G|-------------------|--------------------|
D|----------------3--|-/5-----3-----------|
A|-5------7----------|-----------------7--|
E|-------------------|--------------------|

e|-------------------|--------------------|
B|-------------------|--------------------|
G|-3-3-3--3-(3)-3-3--|--3-3-3-3-(3)-3--3--|
D|-3-3-3--3-(3)-3-3--|--3-3-3-3-(3)-3--3--|
A|-1-1-1--1-(1)-1-1--|--1-1-1-1-(1)-1--1--|
E|-------------------|--------------------|

                      C5
e|------------------|-------------------|
B|------------------|------------------o|
G|------------------|-------------------|
D|-------5-------7--|-------5-------7---|
A|-5----------------|-7----------------o|
E|------------------|-------------------|

e|------------------|-------------------|
B|------------------|------------------o|
G|------------------|-------------------|
D|-------2-------3--|-------2-------3---|
A|-1----------------|-3----------------o|
E|------------------|-------------------|

e|------------------|-------------------|
B|------------------|------------------o|
G|-3-3-3-3-(3)-3-3--|-5-5-5-5-(5)-5-5---|
D|-3-3-3-3-(3)-3-3--|-5-5-5-5-(5)-5-5---|
A|-1-1-1-1-(1)-1-1--|-3-3-3-3-(3)-3-3--o|
E|------------------|-------------------|

[Verse]
     $
     D5                                F5        D5  C/E
[Gtrs I, II]
         PM--|          PM--|    PM|
e|---------------|------------------|-------------|--------------|
B|o--------------|------------------|-------------|--------------|
G|---------------|------------------|-------------|--------------|
D|--0---------0--|-(0)-------0------|-3----3--3p0-|-2----2--2-2--|
A|o-0---0-0-0-0--|-(0)-0-0-0-0--0-0-|-3----3--3p0-|-3----3--3-3--|
E|--0---0-0-0-0--|-(0)-0-0-0-0--0-0-|-3----3--3p0-|-2----2--2-2--|

   Bb5                               F5        D5  C/E
       PM--|          PM--|    PM|
e|--------------|------------------|-------------|--------------|
B|--------------|------------------|-------------|-------------o|
G|--------------|------------------|-------------|--------------|
D|-8---------8--|-(8)-------8------|-3----3--3p0-|-2----2--2-2--|
A|-8---8-8-8-8--|-(8)-8-8-8-8--8-8-|-3----3--3p0-|-3----3--3-3-o|
E|-8---8-8-8-8--|-(8)-8-8-8-8--8-8-|-3----3--3p0-|-2----2--2-2--|

[Pre-Chorus]
   D5                          Bb5
[Gtrs I, II]
e|-------------|-------------|-------------|-------------|
B|-------------|-------------|-------------|-------------|
G|-------------|-------------|-------------|-------------|
D|-0---0---0-0-|-0----0--0-0-|-8---8---8-8-|-8----8--8-8-|
A|-0---0---0-0-|-0----0--0-0-|-8---8---8-8-|-8----8--8-8-|
E|-0---0---0-0-|-0----0--0-0-|-8---8---8-8-|-8----8--8-8-|

   F5                          C/E
e|-------------|-------------|-------------|-------------|
B|-------------|-------------|-------------|-------------|
G|-------------|-------------|-------------|-------------|
D|-3---3---3-3-|-3----3--3-3-|-2---2---2-2-|-2----2--2-2-|
A|-3---3---3-3-|-3----3--3-3-|-3---3---3-3-|-3----3--3-3-|
E|-3---3---3-3-|-3----3--3-3-|-2---2---2-2-|-2----2--2-2-|

   D5                          Bb5
e|-------------|-------------|-------------|-------------|
B|-------------|-------------|-------------|-------------|
G|-------------|-------------|-------------|-------------|
D|-0---0---0-0-|-0----0--0-0-|-8---8---8-8-|-8----8--8-8-|
A|-0---0---0-0-|-0----0--0-0-|-8---8---8-8-|-8----8--8-8-|
E|-0---0---0-0-|-0----0--0-0-|-8---8---8-8-|-8----8--8-8-|

   F5                          A/Db
e|-------------|-------------|-----------------|-----------------||
B|-------------|-------------|-----------------|-----------------||
G|-------------|-------------|-----------------|-----------------||
D|-3---3---3-3-|-3----3--3-3-|-11---11---11-11-|-11----11--11-11-||
A|-3---3---3-3-|-3----3--3-3-|-12---12---12-12-|-12----12--12-12-||
E|-3---3---3-3-|-3----3--3-3-|-11---11---11-11-|-11----11--11-11-||

[Chorus]
   D5                 C5
[Gtrs I, II]
e|-----------------------|-------------------------------|
B|-----------------------|-------------------------------|
G|-----------------------|-------------------------------|
D|-12--12-----12------10-|-(10)-10-10-10-(10)-10-10-(10)-|
A|-12--12-----12------10-|-(10)-10-10-10-(10)-10-10-(10)-|
E|-12--12-----12------10-|-(10)-10-10-10-(10)-10-10-(10)-|

[Gtr III]
e|-----------------------|-------------------------------|
B|-10--10--10-10-(10)--8-|--(8)-----5------5------5------|
G|--x---x---x--x-------x-|----------x------x------x------|
D|--7---7---7--7--(7)--5-|--(5)-----2------2------2------|
A|-----------------------|-------------------------------|
E|-----------------------|-------------------------------|

   Bb5           C5
e|------------------|------------------------------|
B|------------------|------------------------------|
G|------------------|------------------------------|
D|-8--8----8-----10-|-(10)-10-10-10-(10)10-10-(10)-|
A|-8--8----8-----10-|-(10)-10-10-10-(10)10-10-(10)-|
E|-8--8----8-----10-|-(10)-10-10-10-(10)10-10-(10)-|

e|------------------|------------------------------|
B|-6--6--6-6-(6)--8-|--(8)----10-----10s11-10------|
G|-x--x--x-x------x-|----------x------x-----x------|
D|-3--3--3-3-(3)--5-|--(5)-----7------7s=8--7------|
A|------------------|------------------------------|
E|------------------|------------------------------|

   D5                 C5
e|-----------------------|-------------------------------|
B|-----------------------|-------------------------------|
G|-----------------------|-------------------------------|
D|-12--12-----12------10-|-(10)-10-10-10-(10)-10-10-(10)-|
A|-12--12-----12------10-|-(10)-10-10-10-(10)-10-10-(10)-|
E|-12--12-----12------10-|-(10)-10-10-10-(10)-10-10-(10)-|

e|-----------------------|-------------------------------|
B|-10--10--10-10-(10)--8-|--(8)-----5------5------5------|
G|--x---x---x--x-------x-|----------x------x------x------|
D|--7---7---7--7--(7)--5-|--(5)-----2------2------2------|
A|-----------------------|-------------------------------|
E|-----------------------|-------------------------------|

   Bb5           C5
e|------------------|-------------------------------|
B|------------------|-------------------------------|
G|------------------|-------------------------------|
D|-8--8----8-----10-|-(10)-10-10-10-(10)-10-10-(10)-|
A|-8--8----8-----10-|-(10)-10-10-10-(10)-10-10-(10)-|
E|-8--8----8-----10-|-(10)-10-10-10-(10)-10-10-(10)-|

e|------------------|-------------------------------|
B|-6--6--6-6-(6)--5-|--(5)-----5------5------5------|
G|-x--x--x-x------x-|----------x------x------x------|
D|-3--3--3-3-(3)--2-|--(2)-----2------2------2------|
A|------------------|-------------------------------|
E|------------------|-------------------------------|

  A5
     PM------------------------------------------------------------------|
e|----------------|-------------------|-----------------|-------------------||
B|----------------|-------------------|-----------------|-------------------||
G|----------------|-------------------|-----------------|-------------------||
D|-7--------------|-------------------|-----------------|-------------------||
A|-7--7-7-7-7-7-7-|--7--7-7-7-7-7-7-7-|-7-7-7-7-7-7-7-7-|--7--7-7-7-7-7-7-7-||
E|-7--7-7-7-7-7-7-|--7--7-7-7-7-7-7-7-|-7-7-7-7-7-7-7-7-|--7--7-7-7-7-7-7-7-||

e|----------------|-------------------|-----------------|-------------------||
B|----------------|-------------------|-----------------|-------------------||
G|-6--------------|-(6)---------------|-6---------------|-(6)---------------||
D|-x--------------|-------------------|-x---------------|-------------------||
A|-4--------------|-(4)---------------|-4---------------|-(4)---------------||
E|----------------|-------------------|-----------------|-------------------||

[Bridge]
     D5                 C5          Bb5
     Gtr I
                                    ~
e|-------------------|----------------|
B|o--------------6---|-5--------------|
G|-----------7-------|-----7---5---7--|
D|------/7-----------|----------------|
A|o------------------|----------------|
E|-------------------|----------------|

[Gtr II]
                                    ~
e|---------------5---|----------------|
B|o----------6-------|-8---6---5---6--|
G|------/7-----------|----------------|
D|-------------------|----------------|
A|o------------------|----------------|
E|-------------------|----------------|

[Gtr III]
e|-------------------|----------------|
B|o------------------|----------------|
G|--7-7--7-7-7-7-7-7-|-5-5-5-5-5-5-3--|
D|--7-7--7-7-7-7-7-7-|-5-5-5-5-5-5-3--|
A|o-5-5--5-5-5-5-5-5-|-3-3-3-3-3-3-1--|
E|-------------------|----------------|

                        C5
e|--------------------|----------------------|
B|----------------6---|-8---6---5h6p==5------|
G|-(7)\-------7-------|-----------------5----|
D|-------/7-----------|----------------------|
A|--------------------|----------------------|
E|--------------------|----------------------|

e|----------------5---|-6---5---3h5p==3------|
B|-(6)\-------6-------|-----------------5----|
G|-------/7-----------|----------------------|
D|--------------------|----------------------|
A|--------------------|----------------------|
E|--------------------|----------------------|

e|--------------------|----------------------|
B|--------------------|----------------------|
G|-(3)----3-3-3-3-3-3-|-5-5-5-5-5---5---5-5--|
D|-(3)----3-3-3-3-3-3-|-5-5-5-5-5---5---5-5--|
A|-(1)----1-1-1-1-1-1-|-3-3-3-3-3---3---3-3--|
E|--------------------|----------------------|

   D5                  C5          Bb5
                                    ~~~~
e|-------------------|-----------------|
B|---------------6---|-5---------------|
G|-7\--------7-------|-----7---5-------|
D|------/7-----------|-------------/8--|
A|-------------------|-----------------|
E|-------------------|-----------------|

                                   ~~~~
e|---------------5---|-----------------|
B|-6\--------6-------|-8---6---5-------|
G|------/7-----------|-------------/7--|
D|-------------------|-----------------|
A|-------------------|-----------------|
E|-------------------|-----------------|

e|-------------------|-----------------|
B|-------------------|-----------------|
G|-7--7--7-7-7-7-7-7-|-5-5-5-5-5-5--3--|
D|-7--7--7-7-7-7-7-7-|-5-5-5-5-5-5--3--|
A|-5--5--5-5-5-5-5-5-|-3-3-3-3-3-3--1--|
E|-------------------|-----------------|

                              D.S. al Coda
                              D.S. al Coda
                C5
  ~~~~~     ~                   ~~
e|------------------|------------------------|
B|----------6-------|------5----6----(6)\---o|
G|------7-------/5--|-(5)--------------------|
D|-(8)--------------|------------------------|
A|------------------|-----------------------o|
E|------------------|------------------------|
|
 |~~~~~     ~                   ~~
e|----------5-------|------------------------|
B|------6-----------|------8---10---(10)\---o|
G|-(7)----------/9--|-(9)--------------------|
D|------------------|------------------------|
A|------------------|-----------------------o|
E|------------------|------------------------|
|
e|------------------|------------------------|
B|------------------|-----------------------o|
G|-(3)--3-3-3-3--5--|-(5)--5-5--5-5---5---5--|
D|-(3)--3-3-3-3--5--|-(5)--5-5--5-5---5---5--|
A|-(1)--1-1-1-1--3--|-(3)--3-3--3-3---3---3-o|
E|------------------|------------------------|

[Interlude]
    &
    N.C. D5      N.C.   D5      N.C.
    Gtr I
         PM----|        PM----|
E|--------------------|-------------------|
B|o-------------------|-------------------|
G|--------------------|-------------------|
D|--------------------|-------------------|
A|o------0-0-0-0------|-0-0-0-0-----------|
E|--7s8\-0-0-0-0-7s8\-|-0-0-0-0-7s8\-6s7\-|

[Gtr II]
         PM----|        PM----|
e|--------------------|-------------------|
B|o-------------------|-------------------|
G|--------------------|-------------------|
D|--------------------|-------------------|
A|o-3s4\-0-0-0-0-3s4\-|-0-0-0-0-3s4\-2s3\-|
E|-------0-0-0-0------|-0-0-0-0-----------|

       D5      N.C.   D5      N.C.
       PM----|        PM----|
e|-------------------|---------------------|
B|-------------------|--------------------o|
G|-------------------|---------------------|
D|-------------------|---------------------|
A|------0-0-0-0------|-0-0-0-0------------o|
E|-7s8\-0-0-0-0-7s8\-|-0-0-0-0-7s8\-6s7\---|

       PM----|        PM----|
e|-------------------|---------------------|
B|-------------------|--------------------o|
G|-------------------|---------------------|
D|-------------------|---------------------|
A|-3s4\-0-0-0-0-3s4\-|-0-0-0-0-3s4\-2s3\--o|
E|------0-0-0-0------|-0-0-0-0-------------|

[Re-Intro]
     D5  E5  F5                D5  A5  Bb5
     Gtrs I, II
e|-------------|------------|------------|---------|
B|o------------|------------|------------|--------o|
G|-------------|------------|------------|---------|
D|--0---2---3--|-(3)--------|-0---7---8--|-(8)-----|
A|o-0---2---3--|-(3)--------|-0---7---8--|-(8)----o|
E|--0---2---3--|-(3)--------|-0---7---8--|-(8)-----|

[Breakdown]
     Half-Time Eighth Feel Q=94
     Dm                        A5        G5A5
    6/8
[Gtrs I, II]
e|--------------------------|---------------|
B|o-------------------------|---------------|
G|--10-10-10-10-10-10-10-10-|-9-9-9-9-9-7-9-|
D|---0--0--0--0--0--0--0--0-|-7-7-7-7-7-5-7-|
A|o--0--0--0--0--0--0--0--0-|-7-7-7-7-7-5-7-|
E|---0--0--0--0--0--0--0--0-|-7-7-7-7-7-5-7-|

   Bb5                       F6      E6
                                              4x
e|-------------------------|------------------|
B|-------------------------|-----------------o|
G|-10-10-10-10-10-10-10-10-|-7-7-7-7-6-6-6-6--|
D|--8--8--8--8--8--8--8--8-|-3-3-3-3-2-2-2-2--|
A|--8--8--8--8--8--8--8--8-|-5-5-5-5-4-4-4-4-o|
E|--8--8--8--8--8--8--8--8-|-3-3-3-3-2-2-2-2--|

[Guitar Break]
     a Tempo Q=187
     D5
    4/4
    [Gtr I]
e|---------------------|--------------------|
B|o--------------------|--------------------|
G|---------------------|--------------------|
D|------------------7--|-/8-----7-----------|
A|o-/8-----10----------|----------------10--|
E|---------------------|--------------------|

[Gtr II]
e|---------------------|--------------------|
B|o--------------------|--------------------|
G|---------------------|--------------------|
D|---------------------|-/5-----------------|
A|o--5------7-------8--|--------8--------7--|
E|---------------------|--------------------|

[Gtr III]
e|---------------------|--------------------|
B|o--------------------|--------------------|
G|---7-7-7--7-(7)-7-7--|--7-7-7-7-(7)-7--7--|
D|---7-7-7--7-(7)-7-7--|--7-7-7-7-(7)-7--7--|
A|o--5-5-5--5-(5)-5-5--|--5-5-5-5-(5)-5--5--|
E|---------------------|--------------------|

   C5
e|--------------------|----------------------|
B|--------------------|----------------------|
G|--------------------|----------------------|
D|-------/10-------8--|-7-----8-------/10----|
A|-7------------------|----------------------|
E|--------------------|----------------------|

e|--------------------|----------------------|
B|--------------------|----------------------|
G|--------------------|----------------------|
D|--------/7-------5--|-------5---------7\---|
A|-3------------------|-8--------------------|
E|--------------------|----------------------|

e|--------------------|----------------------|
B|--------------------|----------------------|
G|-5-5-5---5-(5)-5-5--|-5-5-5-5-(5)-5---5----|
D|-5-5-5---5-(5)-5-5--|-5-5-5-5-(5)-5---5----|
A|-3-3-3---3-(3)-3-3--|-3-3-3-3-(3)-3---3----|
E|--------------------|----------------------|

   Bb5
e|-------------------|--------------------|
B|-------------------|--------------------|
G|-------------------|--------------------|
D|----------------7--|-/8-----7-----------|
A|-8-----10----------|----------------10--|
E|-------------------|--------------------|

e|-------------------|--------------------|
B|-------------------|--------------------|
G|-------------------|--------------------|
D|----------------3--|-/5-----3-----------|
A|-5------7----------|-----------------7--|
E|-------------------|--------------------|

e|-------------------|--------------------|
B|-------------------|--------------------|
G|-3-3-3--3-(3)-3-3--|--3-3-3-3-(3)-3--3--|
D|-3-3-3--3-(3)-3-3--|--3-3-3-3-(3)-3--3--|
A|-1-1-1--1-(1)-1-1--|--1-1-1-1-(1)-1--1--|
E|-------------------|--------------------|

                       D5
e|-------------------|--------------------|
B|-------------------|-------------------o|
G|-------------------|--------------------|
D|--------5-------7--|--------5-------7---|
A|-/5----------------|-/7----------------o|
E|-------------------|--------------------|

e|-------------------|--------------------|
B|-------------------|-------------------o|
G|-------------------|--------------------|
D|--------2-------3--|--------2-------3---|
A|--1----------------|--3----------------o|
E|-------------------|--------------------|

e|-------------------|--------------------|
B|-------------------|-------------------o|
G|--3-3-3-3-(3)-3-3--|--5-5-5-5-(5)-5-5---|
D|--3-3-3-3-(3)-3-3--|--5-5-5-5-(5)-5-5---|
A|--1-1-1-1-(1)-1-1--|--3-3-3-3-(3)-3-3--o|
E|-------------------|--------------------|

   D5 N.C.
[Gtrs I, II]
e|----------|-----|
B|----------|-----|
G|----------|-----|
D|-0--------|-----|
A|-0--------|-----|
E|-0--------|-----|

[Guitar Solo]
  D5
  Gtrs I, II
  PM------------|             PM--------------|
e|--------------------|-----------------------------------------|
B|--------------------|-----------------------------------------|
G|--------------------|-----------------------------------------|
D|--------------------|-----------------------------------------|
A|-0-0-0-0-0-0--------|--------0------------0----0--------------|
E|-0-0-0-0-0-0--------|--------0------------0----0--------------|

[Gtr III]
e|--------------------|-----------------------------------------|
B|--------------------|-------13-(13)b17==(13)r(13)-------------|
G|--------------------|----14-----------------------14-9-(9)b10r|
D|-----------------10-|-12--------------------------------------|
A|-------------0-8----|-----------------------------------------|
E|--------------------|-----------------------------------------|

  F5
   PM--------------|                          PM----|
e|------------------------|--------------------------------------|
B|------------------------|--------------------------------------|
G|------------------------|--------------------------------------|
D|------------------------|--------------------------------------|
A|--3--3-3-3-3-3----------|--------------------3---3--3----------|
E|--3--3-3-3-3-3----------|--------------------3---3--3----------|

    ~~~
e|------------------12----|-15-(15)b17==(15)r(15)-12----------12-|
B|---------------13----13-|--------------------------13----13----|
G|-(9)--------------------|-----------------------------14-------|
D|------------------------|--------------------------------------|
A|------------------------|--------------------------------------|
E|------------------------|--------------------------------------|

  Bb5
   PM----------------------|                       PM---|
e|---------------------------------------|---------------------------------|
B|---------------------------------------|---------------------------------|
G|---------------------------------------|---------------------------------|
D|---------------------------------------|---------------------------------|
A|--8-8--8--8--8--8----------------------|----------8--8---8---------------|
E|--8-8--8--8--8--8----------------------|----------8--8---8---------------|

e|-13------------17-(17)b18r(17)-(17)b18r|=(17)-13-10----------------------|
B|------15-------------------------------|------------10-(10)b12r(10)------|
G|---------14-15-------------------------|----------------------------9-10-|
D|---------------------------------------|---------------------------------|
A|---------------------------------------|---------------------------------|
E|---------------------------------------|---------------------------------|

  F5                         C/E
   PM--------------------------------------|
e|--------------------------|-----------------------------------|
B|--------------------------|-----------------------------------|
G|--------------------------|-----------------------------------|
D|--------------------------|-----------------------------------|
A|--3-3--3--3--3-3----------|--3-3--3--3--3--3------------------|
E|--3-3--3--3--3-3----------|--2-2--2--2--2--2------------------|

e|-13---12---------------13-|-15---13-12------------------------|
B|---------10---------10----|------------13---------------------|
G|------------10-9-10-------|---------------12b14==(12)r(12)-9--|
D|--------------------------|-----------------------------------|
A|--------------------------|-----------------------------------|
E|--------------------------|-----------------------------------|

  D5
   PM----------------|             PM--------------|
e|-------------------------|-----------------------------------------|
B|-------------------------|-----------------------------------------|
G|-------------------------|-----------------------------------------|
D|-------------------------|-----------------------------------------|
A|--0-0-0---0---0-0--------|--------0------------0----0--------------|
E|--0-0-0---0---0-0--------|--------0------------0----0--------------|

    ~~
e|-------------------------|-----------------------------------------|
B|-------------------------|-------13-(13)b17==(13)r(13)-------------|
G|-10-----(10)\------------|----14-----------------------14-9-(9)b10r|
D|----------------------10-|-12--------------------------------------|
A|------------------0-8----|-----------------------------------------|
E|-------------------------|-----------------------------------------|

  F5
   PM--------------|                          PM----|
e|------------------------|--------------------------------------|
B|------------------------|--------------------------------------|
G|------------------------|--------------------------------------|
D|------------------------|--------------------------------------|
A|--3--3-3-3-3-3----------|--------------------3---3--3----------|
E|--3--3-3-3-3-3----------|--------------------3---3--3----------|

    ~~~
e|------------------12----|-15-(15)b17==(15)r(15)-12----------12-|
B|---------------13----13-|--------------------------13----13----|
G|-(9)--------------------|-----------------------------14-------|
D|------------------------|--------------------------------------|
A|------------------------|--------------------------------------|
E|------------------------|--------------------------------------|

  Bb5
   PM----------------------|                       PM---|
e|---------------------------------------|---------------------------------|
B|---------------------------------------|---------------------------------|
G|---------------------------------------|---------------------------------|
D|---------------------------------------|---------------------------------|
A|--8-8--8--8--8--8----------------------|----------8--8---8---------------|
E|--8-8--8--8--8--8----------------------|----------8--8---8---------------|

e|-13------------17-(17)b18r(17)-(17)b18r|=(17)-13-10----------------------|
B|------15-------------------------------|------------10-(10)b12r(10)------|
G|---------14-15-------------------------|----------------------------9-10-|
D|---------------------------------------|---------------------------------|
A|---------------------------------------|---------------------------------|
E|---------------------------------------|---------------------------------|

  F5                         C/E
   PM--------------------------------------|
e|--------------------------|---------------------------------|
B|--------------------------|---------------------------------|
G|--------------------------|---------------------------------|
D|--------------------------|---------------------------------|
A|--3-3--3--3--3-3----------|--3-3--3--3--3--3----------------|
E|--3-3--3--3--3-3----------|--2-2--2--2--2--2----------------|

e|-13---12---------------13-|-15---13-12----15-13-12------10--|
B|---------10---------10----|------------13------------10-----|
G|------------10-9-10-------|------------------------9--------|
D|--------------------------|---------------------------------|
A|--------------------------|---------------------------------|
E|--------------------------|---------------------------------|

[Outro]
   Half-Time Eighth Feel Q=94
   Dm                                A5                  G5A5
  6/8
e|---------------------------------|-------------------------|
B|---------------------------------|-------------------------|
G|-10----10-10-10-10------10-10-10-|---9------9-9-9---9--7-9-|
D|--0-----0--0--0--0-------0--0--0-|---7------7-7-7---7--5-7-|
A|--0-----0--0--0--0-------0--0--0-|---7------7-7-7---7--5-7-|
E|--0-----0--0--0--0-------0--0--0-|---7------7-7-7---7--5-7-|

                                                      ~~~~~~~~
e|----------------15pb16========15-|-(15)b17========(15)r====|
B|------------------------15-------|-------------------------|
G|-17b19---------------------------|-------------------------|
D|---------------------------------|-------------------------|
A|---------------------------------|-------------------------|
E|---------------------------------|-------------------------|

   Bb5                         F6          E6
e|---------------------------|------------------------|
B|---------------------------|------------------------|
G|--10--10-10-10-10-10-10-10-|---7---7-7-7--6--6-6--6-|
D|---8---8--8--8--8--8--8--8-|---3---3-3-3--2--2-2--2-|
A|---8---8--8--8--8--8--8--8-|---5---5-5-5--4--4-4--4-|
E|---8---8--8--8--8--8--8--8-|---3---3-3-3--2--2-2--2-|

    ~~~~~~
e|-(15)----------------------|-(15)\------------------|
B|---------------------------|------------------------|
G|---------------------------|-------------12-14---15-|
D|---------------------------|--------------x--x----x-|
A|---------------------------|-------------10-12---13-|
E|---------------------------|------------------------|

   Dm                           A5          G5A5
e|----------------------------|-----------------|
B|----------------------------|-----------------|
G|-10-10-10----10-10-10-10-10-|-9-9-9---9-9-7-9-|
D|--0--0--0-----0--0--0--0--0-|-7-7-7---7-7-5-7-|
A|--0--0--0-----0--0--0--0--0-|-7-7-7---7-7-5-7-|
E|--0--0--0-----0--0--0--0--0-|-7-7-7---7-7-5-7-|

e|----------------------------|-----------------|
B|----------------------------|-----------------|
G|-14-14-14-14-14-14-12----10-|-9-9-9-9-9-9-7-9-|
D|--x--x--x--x--x--x--x-----x-|-x-x-x-x-x-x-x-x-|
A|-12-12-12-12-12-12-10-----8-|-7-7-7-7-7-7-5-7-|
E|----------------------------|-----------------|

   Bb5                           F6             E6
e|-----------------------------|--------------------------------|
B|-----------------------------|--------------------------------|
G|-10-10-10---10-10-10-10-10---|--7--7--7-----7--6--6--6--6-----|
D|--8--8--8----8--8--8--8--8---|--3--3--3-----3--2--2--2--2-----|
A|--8--8--8----8--8--8--8--8---|--5--5--5-----5--4--4--4--4-----|
E|--8--8--8----8--8--8--8--8---|--3--3--3-----3--2--2--2--2-----|

e|-----------------------------|--------------------------------|
B|-----------------------------|--------------------------------|
G|--7--7--7-7--7--7--7--7--7-7-|-10-10-10-10-10-12-12-12-12-12--|
D|--x--x--x-x--x--x--x--x--x-x-|--x--x--x--x--x--x--x--x--x--x--|
A|--5--5--5-5--5--5--5--5--5-5-|--8--8--8--8--8-10-10-10-10-10--|
E|-----------------------------|--------------------------------|

   Dm                              A5          G5 A5
e|-------------------------------|------------------|
B|-------------------------------|------------------|
G|-10-10-10----10-10-10-10-10----|-9-9-9---9-9--7-9-|
D|--0--0--0-----0--0--0--0--0----|-7-7-7---7-7--5-7-|
A|--0--0--0-----0--0--0--0--0----|-7-7-7---7-7--5-7-|
E|--0--0--0-----0--0--0--0--0----|-7-7-7---7-7--5-7-|

e|-------------------------------|------------------|
B|-------------------------------|------------------|
G|-10-10-10-10-10-10-10-10-10-10-|-9-9-9-9-9-9-12-9-|
D|--x--x--x--x--x--x--x--x--x--x-|-x-x-x-x-x-x--x-x-|
A|--8--8--8--8--8--8--8--8--8--8-|-7-7-7-7-7-7-10-7-|
E|-------------------------------|------------------|

   Bb5                             F6             E6
e|-------------------------------|----------------------------|
B|-------------------------------|----------------------------|
G|-10-10-10----10-10-10-10-10----|--7--7--7-----7--6--6-6--6--|
D|--8--8--8-----8--8--8--8--8----|--3--3--3-----3--2--2-2--2--|
A|--8--8--8-----8--8--8--8--8----|--5--5--5-----5--4--4-4--4--|
E|--8--8--8-----8--8--8--8--8----|--3--3--3-----3--2--2-2--2--|
|
e|-------------------------------|----------------------------|
B|-------------------------------|----------------------------|
G|-10-10-10-10-10-10-10-10-10-10-|-14-14-14-14-14-12-14---15--|
D|--x--x--x--x--x--x--x--x--x--x-|--x--x--x--x--x--x--x----x--|
A|--8--8--8--8--8--8--8--8--8--8-|-12-12-12-12-12-10-12---13--|
E|-------------------------------|----------------------------|

   Dm                           A5          G5A5
e|----------------------------|-----------------|
B|----------------------------|-----------------|
G|-10-10-10----10-10-10-10-10-|-9-9-9---9-9-7-9-|
D|--0--0--0-----0--0--0--0--0-|-7-7-7---7-7-5-7-|
A|--0--0--0-----0--0--0--0--0-|-7-7-7---7-7-5-7-|
E|--0--0--0-----0--0--0--0--0-|-7-7-7---7-7-5-7-|

e|----------------------------|-----------------|
B|----------------------------|-----------------|
G|-14-14-14-14-14-14-12----10-|-9-9-9-9-9-9-7-9-|
D|--x--x--x--x--x--x--x-----x-|-x-x-x-x-x-x-x-x-|
A|-12-12-12-12-12-12-10-----8-|-7-7-7-7-7-7-5-7-|
E|----------------------------|-----------------|

   Bb5                           F6             E6
e|-----------------------------|---------------------------|
B|-----------------------------|---------------------------|
G|-10-10-10---10-10-10-10-10---|--7--7--7-----7-6-6-6-6----|
D|--8--8--8----8--8--8--8--8---|--3--3--3-----3-2-2-2-2----|
A|--8--8--8----8--8--8--8--8---|--5--5--5-----5-4-4-4-4----|
E|--8--8--8----8--8--8--8--8---|--3--3--3-----3-2-2-2-2----|

e|-----------------------------|---------------------------|
B|-----------------------------|---------------------------|
G|--7--7--7-7--7--7--7--7--7-7-|-10-10-10-10-10-9-9-9-9-9--|
D|--x--x--x-x--x--x--x--x--x-x-|--x--x--x--x--x-x-x-x-x-x--|
A|--5--5--5-5--5--5--5--5--5-5-|--8--8--8--8--8-7-7-7-7-7--|
E|-----------------------------|---------------------------|

   Dm                              A5                G5 A5
e|-------------------------------|-------------------------|
B|-------------------------------|-------------------------|
G|-10-10-10----10-10-10-10-10----|--9--9--9-----9--9--7--9-|
D|--0--0--0-----0--0--0--0--0----|--7--7--7-----7--7--5--7-|
A|--0--0--0-----0--0--0--0--0----|--7--7--7-----7--7--5--7-|
E|--0--0--0-----0--0--0--0--0----|--7--7--7-----7--7--5--7-|

e|-------------------------------|-------------------------|
B|-------------------------------|-------------------------|
G|-14-14-14-14-14-14-14-14-14-14-|-17-17-17-17-17-17-17-19-|
D|--x--x--x--x--x--x--x--x--x--x-|--x--x--x--x--x--x--x--x-|
A|-12-12-12-12-12-12-12-12-12-12-|-15-15-15-15-15-15-15-17-|
E|-------------------------------|-------------------------|

   Bb5                             F6           E6
e|-------------------------------|-------------------------|
B|-------------------------------|-------------------------|
G|-10-10-10----10-10-10-10-10----|--7--7-7----7--6--6-6-6--|
D|--8--8--8-----8--8--8--8--8----|--3--3-3----3--2--2-2-2--|
A|--8--8--8-----8--8--8--8--8----|--5--5-5----5--4--4-4-4--|
E|--8--8--8-----8--8--8--8--8----|--3--3-3----3--2--2-2-2--|

e|-------------------------------|-------------------------|
B|-------------------------------|-------------------------|
G|-10-10-10-10-10-10-10-10-10-10-|-14-12---10---12-10---9--|
D|--x--x--x--x--x--x--x--x--x--x-|--x--x----x----x--x---x--|
A|--8--8--8--8--8--8--8--8--8--8-|-12-10----8---10--8---7--|
E|-------------------------------|-------------------------|

   Dm                              A5          G5  A5
e|-------------------------------|---------------------|
B|-------------------------------|---------------------|
G|-10-10-10----10-10-10-10-10----|-9-9-9---9-9-7---9---|
D|--0--0--0-----0--0--0--0--0----|-7-7-7---7-7-5---7---|
A|--0--0--0-----0--0--0--0--0----|-7-7-7---7-7-5---7---|
E|--0--0--0-----0--0--0--0--0----|-7-7-7---7-7-5---7---|

e|-------------------------------|---------------------|
B|-------------------------------|---------------------|
G|-14-14-14-14-14-14-14-14-14-14-|-6-6-6-6-6-6-6-6-6-6-|
D|--x--x--x--x--x--x--x--x--x--x-|-x-x-x-x-x-x-x-x-x-x-|
A|-12-12-12-12-12-12-12-12-12-12-|-4-4-4-4-4-4-4-4-4-4-|
E|-------------------------------|---------------------|

   Bb5                           F6        E6
e|-----------------------------|----------------------|
B|-----------------------------|----------------------|
G|-10-10-10---10-10-10-10-10---|-7-7-7---7-6-6-6-6----|
D|--8--8--8----8--8--8--8--8---|-3-3-3---3-2-2-2-2----|
A|--8--8--8----8--8--8--8--8---|-5-5-5---5-4-4-4-4----|
E|--8--8--8----8--8--8--8--8---|-3-3-3---3-2-2-2-2----|

e|-----------------------------|----------------------|
B|-----------------------------|----------------------|
G|--3--3--3-3--3--3--3--3--3-3-|-7-7-7-7-7-6-6-6-6-6--|
D|--x--x--x-x--x--x--x--x--x-x-|-x-x-x-x-x-x-x-x-x-x--|
A|--1--1--1-1--1--1--1--1--1-1-|-5-5-5-5-5-4-4-4-4-4--|
E|-----------------------------|----------------------|

   Dm                              A5          G5  A5
e|-------------------------------|---------------------|
B|-------------------------------|---------------------|
G|-10-10-10----10-10-10-10-10----|-9-9-9---9-9-7---9---|
D|--0--0--0-----0--0--0--0--0----|-7-7-7---7-7-5---7---|
A|--0--0--0-----0--0--0--0--0----|-7-7-7---7-7-5---7---|
E|--0--0--0-----0--0--0--0--0----|-7-7-7---7-7-5---7---|

e|-------------------------------|---------------------|
B|-------------------------------|---------------------|
G|-10-10-10-10-10-10-10-10-10-10-|-9-9-9-9-9-9-9-9-9-9-|
D|--x--x--x--x--x--x--x--x--x--x-|-x-x-x-x-x-x-x-x-x-x-|
A|--8--8--8--8--8--8--8--8--8--8-|-7-7-7-7-7-7-7-7-7-7-|
E|-------------------------------|---------------------|

   Bb5                             F6        E6
e|-------------------------------|----------------------|
B|-------------------------------|----------------------|
G|-10-10-10----10-10-10-10-10----|-7-7-7---7-6-6-6-6----|
D|--8--8--8-----8--8--8--8--8----|-3-3-3---3-2-2-2-2----|
A|--8--8--8-----8--8--8--8--8----|-5-5-5---5-4-4-4-4----|
E|--8--8--8-----8--8--8--8--8----|-3-3-3---3-2-2-2-2----|

e|-------------------------------|----------------------|
B|-------------------------------|----------------------|
G|-10-10-10-10-10-10-10-10-10-10-|-7-7-7-7-7-6-6-6-6-6--|
D|--x--x--x--x--x--x--x--x--x--x-|-x-x-x-x-x-x-x-x-x-x--|
A|--8--8--8--8--8--8--8--8--8--8-|-5-5-5-5-5-4-4-4-4-4--|
E|-------------------------------|----------------------|

************************************

| (n)  Ghost note
| ~    Vibrato
| /    Slide up
| \    Slide down
| p    Pull-off
| PM   Palm mute
| x    Dead note
| h    Hammer-on
| r    Release
| b    Bend
| pb   Pre-bend

************************************
Suggest correction
comments
print report bad tab
20 comments total. Showing first comments.
0 reply
flyingskull 72 Nov 04, 2005 07:45 PM

what the hell is this.

0 reply
dementedloser 15 Jan 02, 2006 05:34 PM

this is way too long. and, hey, did you know you can fit more than 4 notes across the whole page on the staff? it really saves on paper and ink.

0 reply
xxswooshxx 10 Feb 07, 2006 12:02 PM

I thought this was a really great tab especially the solo, all the other tabs have it wrong.

guest
You may want to rate the tab now too:
select rating
Wanna post a correction for this tab? Suggest correction