Oops, an error
Loading. Please wait.

Chapter Four Tab

version 3
version 3
9,366 views 33 this week
6 commentsread comments
1 2 3 4 5
worth learning
x 4
add to favorites
launch autoscroll
font size
0
reset
how to read this tab
guitar tuner
Autoscroll
slow
fast
+/-
esc
set tempo
stop
Help us to improve Ultimate-Guitar.com Take our survey!
×
Author
Difficulty
Tuning
intermediate
D A D G B E
Tuning:DADGBE i fix it but still no solo 

Intro:
e|----------------------|
B|----------------------|
G|----------------------|X2
D|-0--2--3---0--7--8----|
A|-0--2--3---0--7--8----|
D|-0--2--3---0--7--8----|

e|----------------------------|
B|----------------------------|
G|-----:-:-:-----:-:-:-:-:----|
D|-0---0-0-0--0--0-0-0-0-0----|X8
A|-0---0-0-0--0--0-0-0-0-0----|
D|-0---0-0-0--0--0-0-0-0-0----|

Guitar 1 X2
e|---------------------------------------------------------------|
B|---------------------------------------------------------------|
G|---------------------------------------------------------------|
D|-------/5-------5/7-5----5-7-------/5--------2-3---2-3---------|
A|-5-7-8----8-7-3-------8------5-7-8----8-7--1-----3-------------|
D|---------------------------------------------------------------|

Guitar 2 X2
e|-----------------------------------------------------|
B|-----------------------------------------------------|
G|-----------------------------------------------------|
D|---5-7-8-7-5---8/10-8-7-8-10---5-7-8-7-5---5-7---5-7-|
A|-8-----------5---------------8-----------5-----7-----|
D|-----------------------------------------------------|

Verse:X2
e|----------------------------------------------------|
B|----------------------------------------------------|
G|----------------------------------------------------|
D|-0-::-0-::-0-::-0-3333-2222-1-::-1-::-1-::-1-3333-2222|
A|-0-00-0-00-0-00-0-3333-2222-3-33-3-33-3-33-3-3333-2222|
D|-0-00-0-00-0-00-0-3333-2222------------------3333-2222|

Chorus:
e|------------------------------------------------|
B|------------------------------------------------|
G|------------------------------------------------|
D|-0-0-0-0-0-0-0-0-8-8-8-8-8-8-8-8-3-3-3-3-2-2-2-2|
A|-0-0-0-0-0-0-0-0-8-8-8-8-8-8-8-8-3-3-3-3-2-2-2-2|
D|-0-0-0-0-0-0-0-0-8-8-8-8-8-8-8-8-3-3-3-3-2-2-2-2|

e|------------------------------------------------|
B|------------------------------------------------|
G|------------------------------------------------|
D|-0-0-0-0-0-0-0-0-8-8-8-8-8-8-8-8-3-3-3-3-6-6-6-6|
A|-0-0-0-0-0-0-0-0-8-8-8-8-8-8-8-8-3-3-3-3-4-4-4-4|
D|-0-0-0-0-0-0-0-0-8-8-8-8-8-8-8-8-3-3-3-3--------|

X2
e|-------------------------------|
B|-------------------------------|
G|-------------------------------|
D|-7--7---7x-5-2-2-2-2x-3-3x3-5-3-2-|
A|-7--7---7x-5-2-2-2-2x-3-3x3-5-3-2-|
D|-7--7---7x-5-2-2-2-2x-3-3x3-5-3-2-|

guitar 2 i figured out how to do it
e|--------------------------------------------------------------|
B|--------------------------------------------------------------|
G|-14-14--14-14---12--9--9--10--10--10--10---12--14---15--14----|
D|--x--x---x--x----x--x--x---x---x---x---x----x---x----x---x----|
A|-12-12--12-12---10--7--7---8---8---8---8---10--12---13--12----|
D|--------------------------------------------------------------|

e|--------------------------------------------------------------|
B|--------------------------------------------------------------|
G|-14-14--14-14---12--9--9--10--10--10--10---12----9------------|
D|--x--x---x--x----x--x--x---x---x---x---x----x----x------------|
A|-12-12--12-12---10--7--7---8---8---8---8---10----7------------|
D|--------------------------------------------------------------|

Main Harmony: X2 and this part|guitar 1
e|----------------------------------6---------------------|
B|----6--10--8--6-----6br-----6--10---10--8h10p8----------|
G|-/7--------------9------/7---------------------9--10/---|
D|--------------------------------------------------------|
A|--------------------------------------------------------|-------------|
D|--------------------------------------------------------|             | 
                                                          do these 2wice|
e|--------------------------------------------------------|             |
B|----6--10--8--6---------6-10----6-10--------------------|-------------|
G|-/7--------------9\--/7------/9-------------------------|
D|--------------------------------------------------------|
A|--------------------------------------------------------|
D|--------------------------------------------------------|
guitar 2
Guitar Two:
e-----------------------------------------------------|
B|----------------------------------/8----------------|
G|----7--10--9--7--5--7~\-----7--10----10-9h10p9------|
D|-/7----------------------/7--------------------10/--|
A|----------------------------------------------------|----|
D|----------------------------------------------------|    |
                                          do these 2wice                    
e-----------------------------------------------------|    |
B-----------------------------------------------------|----|
G----7--10--9--7--5\-----7--10-----7--10~\------------|
D-/7------------------/8-------/10--------------------|
A-----------------------------------------------------|
D-----------------------------------------------------|




 

V:Vibrato [this is not close to you but it ti kinda is to me]
e|---------------------------------------|
B|---------------------------------------|
G|-:::----:::----:::-------:::-----------|
D|-000----000----000-------000-----------|X4
A|-000----000----000-------000-----------|
D|-000-2v-000-2v-000-2vvvv-000-----------|

e|------------------|
B|------------------|
G|------------------|X2
D|-0-2-3~--0-7-8----|
A|-0-2-3~--0-7-8----|
D|-0-2-3~--0-7-8----|

e|--------------------------------------------------------------|
B|--------------------------------------------------------------|
G|--------------------------------------------------------------|X4
D|-0-0-0-0-0-0-0-0-/7-7-7-7\5/7/8-8-8-8-8-8-8-8-3-3-3-3-2-2-2-2-|
A|-0-0-0-0-0-0-0-0-/7-7-7-7\5/7/8-8-8-8-8-8-8-8-3-3-3-3-2-2-2-2-|
D|-0-0-0-0-0-0-0-0-/7-7-7-7\5/7/8-8-8-8-8-8-8-8-3-3-3-3-2-2-2-2-|

Guitar 1 X2
e|---------------------------------------------------------------|
B|---------------------------------------------------------------|
G|---------------------------------------------------------------|
D|-------/5-------5/7-5----5-7-------/5--------2-3---3/5---------|
A|-5-7-8----8-7-3-------8------5-7-8----8-7--1-----3-------------|
D|---------------------------------------------------------------|

Guitar 2 X2
e|-----------------------------------------------------|
B|-----------------------------------------------------|
G|-----------------------------------------------------|
D|---5-7-8-7-5---8/10-8-7-8-10---5-7-8-7-5---5-7---5-7-|
A|-8-----------5---------------8-----------5-----5-----|
D|-----------------------------------------------------|

this is the guitar during the solo part 
your gonna have to look somewhere for that
and i'm  not sure about this part
Brigde:
e|------------------------------------|
B|------------------------------------|
G|-::::----::-::::----::::----::::----|
D|-0000-0x-00-0000-0x-3333-3x-2222-2x-|X4
A|-0000-0x-00-0000-0x-3333-3x-2222-2x-|
D|-0000-0x-00-0000-0x-3333-3x-2222-2x-|

Do this until fade out
e|--------------------------------------------------------------|
B|--------------------------------------------------------------|
G|--------------------------------------------------------------|
D|-0-0-0-0-0-0-0-0-/7-7-7-7\5/7/8-8-8-8-8-8-8-8-3-3-3-3-2-2-2-2-|
A|-0-0-0-0-0-0-0-0-/7-7-7-7\5/7/8-8-8-8-8-8-8-8-3-3-3-3-2-2-2-2-|
D|-0-0-0-0-0-0-0-0-/7-7-7-7\5/7/8-8-8-8-8-8-8-8-3-3-3-3-2-2-2-2-|

Suggest correction
comments
print report bad tab
6 comments total. Showing first comments.
0 reply
sicfreak91 291 wrote on November 20 2006, 03:44 pm

"Wiggle your fingers"??? .. LMFAO .. uhm, its called 'vibrato' there noob.

0 reply
ndfan 461 wrote on November 20 2006, 04:25 pm

not very good

0 reply
riggdaddy2k5 736 wrote on November 20 2006, 08:19 pm

the "wiggle your fingers" part is not vibrato. its a slide. it goes:

PM.... PM....
A: ----0000-----0000--------
D: 7/8-0000-7/8-0000-7/8\6/7

dont believe me? if at all possible, look at my tab. its Guitar pro. 3rd version. it'll help you out. just give me some credit.

guest
You may want to rate the tab now too:
select rating
Wanna post a correction for this tab? Suggest correction