Oops, an error
Loading. Please wait.

Chapter Four Tab

version 4
version 4
764 views 1 this week
no commentswrite comment
1 2 3 4 5
1 last vote to show rating
add to favorites
launch autoscroll
font size
0
reset
how to read this tab
guitar tuner
Autoscroll
slow
fast
+/-
esc
set tempo
stop
Help us to improve Ultimate-Guitar.com Take our survey!
×
Author
Difficulty
Tuning
intermediate
D A D G B E
NOTE: NUR EIN PARR BLACK METAL RIFFS!!!



               Jup...hab's ein bisschen überarbeitet ^.^



     ##                                         ## 
     ##         [EDITED BY ROBERT]              ##
     ##        [ORIGINAL BY FABIAN]             ##
     ##                                         ##
     ##                                         ##
     ##  VLTRA BRVTAL TRVE FVCKIN' BLACK METAL  ## 
     ##               HAIL SATAN                ##    
############  *You spelled "SANTA" wrong*  ############
     ##                                         ##    
     ##      BLACK FVCKING METAL IST KRIEG!!!   ##
     ##                                         ##

Riff 1 / Intro

tempo: slow
e:|-----------------------------------------------------------------|
b:|-6-6--7--6-6--5--6-6--7--6-6---5----6---6---7----6---6---5----9--|
g:|-7-7--8--7-7--6--7-7--8--7-7---6----7---7---8----7---7---6----10-|
d:|-7-7--8--7-7--6--7-7--8--7-7---6----7---7---8----7---7---6----10-|
A:|-5-5--6--5-5--4--5-5--6--5-5---4----5---5---6----5---5---4----8--|
D:|-----------------------------------------------------------------|

Riff 2
tempo: moderate      
e:|-----------------------------------------------------------------|
b:|-------6-------6-------7-------7-------6-------6-------5-------5-|
g:|-------7-------7-------8-------8-------7-------7-------6-------6-|
d:|-------7-------7-------8-------8-------7-------7-------6-------6-|
A:|-------5-------5-------6-------6-------5-------5-------4-------4-|
D:|-0-0-0---0-0-0---0-0-0---0-0-0---0-0-0---0-0-0---0-0-0---0-0-0---|
    ^ | ^
    | v |
  (Galopping)

e:|--------------------------------------------------------------------|
b:|----6---6---7---7---6---6---5---5---6---6---7---7---6---6---9----9--|
g:|----7---7---8---8---7---7---6---6---7---7---8---8---7---7---10---10-|
d:|----7---7---8---8---7---7---6---6---7---7---8---8---7---7---10---10-|
A:|----5---5---6---6---5---5---4---4---5---5---6---6---5---5---8----8--|
D:|-000-000-000-000-000-000-000-000-000-000-000-000-000-000-000--000---|


Riff 3

tempo: moderate/fast
e:|-----------------------------------------------------------------------------------------|
b:|---------------------6---------------------6---------------------7---------------------7-|
g:|---------------------7---------------------7---------------------8---------------------8-|
d:|---------------------7---------------------7---------------------8---------------------8-|
A:|---------------------5---------------------5---------------------6---------------------6-|
D:|-0-0-0--0-0-0--0-0-0---0-0-0--0-0-0--0-0-0---0-0-0--0-0-0--0-0-0---0-0-0--0-0-0--0-0-0---|
    ^ | ^         
    | v |
 (galloping)

e:|-----------------------------------------------------------------------------------------|
b:|---------------------6---------------------6---------------------7---------------------7-|
g:|---------------------7---------------------7---------------------8---------------------8-|
d:|---------------------7---------------------7---------------------8---------------------8-|
A:|---------------------5---------------------5---------------------6---------------------6-|
D:|-0-0-0--0-0-0--0-0-0---0-0-0--0-0-0--0-0-0---0-0-0--0-0-0--0-0-0---0-0-0--0-0-0--0-0-0---|

 
Riff 4 / Pre-Chorus

tempo: slow/moderate
e:|------------------------------------------------------------|
b:|----8-7-------8-7-------8-7-------8-7-------8-7-------8-7---|
g:|---9---8-----9---8-----9---8-----9---8-----9---8-----9---8--|
d:|--9-----8---9-----8---9-----8---9-----8---9-----8---9-----8-|
A:|-7-------6-7---------7-------6-7---------7-------6-7--------|
D:|------------------------------------------------------------|

e:|---------------------------------------------------------------|
b:|-3----6-5-------6-5-------6-5-------6-5-------6-5-------6-5----|
g:|-----7---6-----7---6-----7---6-----7---6-----7---6-----7---6---|
d:|----7-----6---7-----6---7-----6---7-----6---7-----6---7-----6--|
A:|---5-------4-5-------4-5-------4-5-------4-5-------4-5-------4-|
D:|---------------------------------------------------------------|


Riff 5 / Main Riff (Chorus)

tempo: moderate
e:|------------------------------------------------------------------------------------|
b:|-5-5-5--5-5-5--5-5-5--5-5-5--6-6-6--6-6-6--6-6-6--6-6-6--8-8-8--8-8-8--8-8-8--8-8-8-|
g:|-6-6-6--6-6-6--6-6-6--6-6-6--7-7-7--7-7-7--7-7-7--7-7-7--9-9-9--9-9-9--9-9-9--9-9-9-|
d:|-6-6-6--6-6-6--6-6-6--6-6-6--7-7-7--7-7-7--7-7-7--7-7-7--9-9-9--9-9-9--9-9-9--9-9-9-|
A:|-4-4-4--4-4-4--4-4-4--4-4-4--5-5-5--5-5-5--5-5-5--5-5-5--7-7-7--7-7-7--7-7-7--7-7-7-|
D:|------------------------------------------------------------------------------------|

e:|--------------------------------------------------------------------------|
b:|-9--9--9---10-10-10--9--9--9---8-8-8--9--9--9---10-10-10--9--9--9---8-8-8-|
g:|-10-10-10--11-11-11--10-10-10--9-9-9--10-10-10--11-11-11--10-10-10--9-9-9-|
d:|-10-10-10--11-11-11--10-10-10--9-9-9--10-10-10--11-11-11--10-10-10--9-9-9-|
A:|-8--8--8---9--9--9---8--8--8---7-7-7--8--8--8---9--9--9---8--8--8---7-7-7-|
D:|--------------------------------------------------------------------------|
    ^  ^  |
    |  |  v
    D  D
    O  O  U
    W  W  P
    N  N 


Riff 6

tempo: slow/moderate

e:|--------------------------------------------------|
b:|-3-3-3-3-3-3--9--9--9--9--9--9---3-3-3-3-3-3--7-7-|
g:|-4-4-4-4-4-4--10-10-10-10-10-10--4-4-4-4-4-4--8-8-|
d:|-4-4-4-4-4-4--10-10-10-10-10-10--4-4-4-4-4-4--8-8-|
A:|-2-2-2-2-2-2--8--8--8--8--8--8---2-2-2-2-2-2--6-6-|
D:|--------------------------------------------------|

e:|------------------------------------------------------|
b:|-6-6-6-6--3-3-3-3-3-3--9--9--9--9--9--9---3-3-3-3-3-3-|
g:|-7-7-7-7--4-4-4-4-4-4--10-10-10-10-10-10--4-4-4-4-4-4-|
d:|-7-7-7-7--4-4-4-4-4-4--10-10-10-10-10-10--4-4-4-4-4-4-|
A:|-5-5-5-5--2-2-2-2-2-2--8--8--8--8--8--8---2-2-2-2-2-2-|
D:|------------------------------------------------------|


e:|------------------------------------------------------------------------------------|
b:|-7-7--6-6-6-6--3-3-3-3-3-3--11-11-11-11-11-11---3--3--3--3--3--3---9--9--8--8--8--8-|
g:|-8-8--7-7-7-7--4-4-4-4-4-4--12-12-12-12-12-12---4--4--4--4--4--4---10-10-9--9--9--9-|
d:|-8-8--7-7-7-7--4-4-4-4-4-4--12-12-12-12-12-12---4--4--4--4--4--4---10-10-9--9--9--9-|
A:|-6-6--5-5-5-5--2-2-2-2-2-2--10-10-10-10-10-10---2--2--2--2--2--2---8--8--7--7--7--7-|
D:|------------------------------------------------------------------------------------|

     ^ ^  ^ ^ ^ ^
     | |  | | | |
    DOWN THE WHOLE TIME


e:|--------------------------------------------------------------------------------------|
b:|-3-3-3-3-3-3--11-11-11-11-11-11--3-3-3-3-3-3--9--9--8-8-8-8--3-3-3-3-3-3--7-7-7-7-7-7-|
g:|-4-4-4-4-4-4--12-12-12-12-12-12--4-4-4-4-4-4--10-10-9-9-9-9--4-4-4-4-4-4--8-8-8-8-8-8-|
d:|-4-4-4-4-4-4--12-12-12-12-12-12--4-4-4-4-4-4--10-10-9-9-9-9--4-4-4-4-4-4--8-8-8-8-8-8-|
A:|-2-2-2-2-2-2--10-10-10-10-10-10--2-2-2-2-2-2--8--8--7-7-7-7--2-2-2-2-2-2--6-6-6-6-6-6-|
D:|--------------------------------------------------------------------------------------|

e:|--------------------------------------------------------------------------------|
b:|-3-3-3-3-3-3--5-5--4-4-4-4--3-3-3-3-3-3--7-7-7-7-7-7--3-3-3-3-3-3--5-5--4-4-4-4-|
g:|-4-4-4-4-4-4--6-6--5-5-5-5--4-4-4-4-4-4--8-8-8-8-8-8--4-4-4-4-4-4--6-6--5-5-5-5-|
d:|-4-4-4-4-4-4--6-6--5-5-5-5--4-4-4-4-4-4--8-8-8-8-8-8--4-4-4-4-4-4--6-6--5-5-5-5-|
A:|-2-2-2-2-2-2--4-4--3-3-3-3--2-2-2-2-2-2--6-6-6-6-6-6--2-2-2-2-2-2--4-4--3-3-3-3-|
D:|--------------------------------------------------------------------------------|
Suggest correction
Give kudos to tab author, rate the tab!
1 2 3 4 5
comments
print report bad tab
guest
You may want to rate the tab now too:
select rating
Wanna post a correction for this tab? Suggest correction