Oops, an error
Loading. Please wait.

Clairvoyant Disease Tab

version 2
version 2

Whole song

40,410 views 27 this week
8 commentsread comments
1 2 3 4 5
x 24
add to favorites
×
Save as Personal and add changes to this tab that will be seen only by you. Learn more ›
launch autoscroll
font size
0
reset
how to read this tab
guitar tuner
backing track
0:00
0:00
Autoscroll
slow
fast
+/-
esc
set tempo
stop
Author
[Intro]
(Slowly Q=69)
(N.C.)
(4/4)
(Gtr 1)
e|---------------------------|---------------|
B|---------------------------|---------------|
G|---------------------------|---------------|
D|-7---5-7--/8-7-5-(5)-7-(7)S|=3----2--3-(3)S|
A|---------------------------|---------------|
E|---------------------------|---------------|

(Gtr 2)
e|---------------------------|---------------|
B|---------------------------|---------------|
G|---------------------------|---------------|
D|---------------------------|---------------|
A|-8---7-8-/10-8-7-(7)-8-(8)S|=5----4--5-(5)S|
E|---------------------------|---------------|

e|---------------------------|-------------------|
B|---------------------------|-------------------|
G|---------------------------|-------------------|
D|-7---5-7--/8-7-5-(5)-7-(7)S|=3---(3)S5---(5)\--|
A|---------------------------|-------------------|
E|---------------------------|-------------------|
|
e|---------------------------|-------------------|
B|---------------------------|-------------------|
G|---------------------------|-------------------|
D|---------------------------|-------------------|
A|-8---7-8-/10-8-7-(7)-8-(8)S|=5---(5)S7---(7)\--|
E|---------------------------|-------------------|

[Verse]
(Dmadd2)
(Gtr 3)
e|---------0---------0------5--------0--(0)-----0-|
B|o-----------6--(6)--------------6---------------|
G|------2--------------2--------------------2-----|
D|---0-------------------0-----0--------------0---|
A|o-----------------------------------------------|
E|------------------------------------------------|

(Gtr 4)
e|--------12---------------------12---------------|
B|o-----------------------------------------------|
G|-----14----14-(14)----------14----14-(14)-------|
D|--12---------------------12---------------------|
A|o-----------------------------------------------|
E|------------------------------------------------|

(Bbmaj7add4)
                                            (3x)
e|----------0--(0)-------5-----0------------|
B|-------3---------3--------------3--------o|
G|----3--------------3----------------0-----|
D|--------------------------3---------------|
A|-1-------------------1-------------------o|
E|------------------------------------------|

                                           (3x)
e|------10--------------------10------------|
B|-----------------------------------------o|
G|---10----10-(10)---------10----10-(10)----|
D|-8---------------------8------------------|
A|-----------------------------------------o|
E|------------------------------------------|

(Dmadd2)
e|--------0---------0------5--------0--(0)-----0-|
B|-----------6--(6)--------------6---------------|
G|-----2--------------2--------------------2-----|
D|--0-------------------0-----0--------------0---|
A|-----------------------------------------------|
E|-----------------------------------------------|

e|-------12---------------------12---------------|
B|-----------------------------------------------|
G|----14----14-(14)----------14----14-(14)-------|
D|-12---------------------12---------------------|
A|-----------------------------------------------|
E|-----------------------------------------------|

   (Bbmaj7add4)          Bbadd4
e|----------0--(0)-------^-0----|
B|-------3---------3-----^-3----|
G|----3--------------3---^-3----|
D|------------------------------|
A|-1-------------------1--------|
E|------------------------------|

e|------10---------------^10----|
B|-----------------------^-8----|
G|---10----10-(10)-------^10----|
D|-8---------------------^-8----|
A|------------------------------|
E|------------------------------|

[Chorus]
     $                                              To Coda
     D5         Em7D5         F6/D D5   BbD5  BbD5   AbD5  A5
(Gtr 1, 2)
      ~~~~~~~~~~~~~~~~~~~~~~~~~~~~~~~~~~~~~~~~~~~~~
e|------------------------------|-----------------------------|
B|o-15------------15------------|-15-----------15------------o|
G|------------------------------|-----------------------------|
D|------------------------------|-----------------------------|
A|o-----------------------------|----------------------------o|
E|------------------------------|-----------------------------|

(Gtr 5)
      PM|   PM|     PM|   PM|       PM|   PM|    PM|   PM|
e|------------------------------|-----------------------------|
B|o-----------------------------|----------------------------o|
G|------------------------------|-----------------------------|
D|-------0-----5\------0-----7\-|------3-----2----------------|
A|o--0-0-0-0-0-7\--0-0-0-0-0-8\-|--0-0-1-0-0-1--0-0-7-0-0-7\-o|
E|---0-0-0-0-0-0---0-0-0-0-0-0--|--0-0---0-0----0-0-6-0-0-7\--|

     D5                  Em7/D D5                 F6/D
(Gtr 1)
e|--------------15b17---(15)--------15b17-(15)---(15)\-|
B|o-------15-13---------------15-----------------------|
G|----/14------------------------14--------------------|
D|-----------------------------------------------------|
A|o----------------------------------------------------|
E|-----------------------------------------------------|

(Gtr 2)
e|--------------15b17---(15)--------15b17-(15)---(15)\-|
B|o-------15-13---------------15-----------------------|
G|----/14------------------------14--------------------|
D|-----------------------------------------------------|
A|o----------------------------------------------------|
E|-----------------------------------------------------|

(Gtr 5)
    PM|          PM---|        PM|          PM-|
e|-----------------------------------------------------|
B|o----------------------------------------------------|
G|-----------------------------------------------------|
D|---------0--------------5\---------0-------------7\--|
A|o-0---0--0-----0----0---7\---0--0--0------0--0---8\--|
E|--0---0--0-----0----0---0----0--0--0------0--0---0---|

   D5    Bb5     D5    Bbb5    D5    Ab6     D5    A5
     ~~~           ~~~           ~~~           ~~~
e|------------------------------------------------------------|
B|-/15-----(15)\-/14-----(14)\-/13-----(13)\-/14------(14)\--o|
G|------------------------------------------------------------|
D|------------------------------------------------------------|
A|-----------------------------------------------------------o|
E|------------------------------------------------------------|

     ~~~           ~~~           ~~~           ~~~
e|------------------------------------------------------------|
B|-----------------------------------------------------------o|
G|-/15-----(15)\-/14-----(14)\-/13-----(13)\-/14------(14)\---|
D|------------------------------------------------------------|
A|-----------------------------------------------------------o|
E|------------------------------------------------------------|

     PM|           PM|           PM|           PM|
e|------------------------------------------------------------|
B|-----------------------------------------------------------o|
G|------------------------------------------------------------|
D|-------3-------------2--------------------------------------|
A|---0-0-1---------0-0-1---------0-0-7---------0-0-7\--------o|
E|---0-0-----------0-0-----------0-0-6---------0-0-7\---------|

[Verse]
N.C.
(Gtr 2)
e|------------------------------------------|
B|o-----------------------------------------|
G|------------------------------------------|
D|---------2--3--(3)-2h3-/5-----3--2--(2)-3-|
A|o-----0-----------------------------------|
E|---0--------------------------------------|

(Gtr 4)
e|--------12-------------------12-----------|
B|o-----------------------------------------|
G|-----14----14-(14)--------14----14-(14)---|
D|--12-------------------12-----------------|
A|o-----------------------------------------|
E|------------------------------------------|

                     ~
                                       (3x)
e|-------------------------------------|
B|------------------------------------o|
G|-------3--5--(5)-5s7-----------------|
D|----3--------------------------------|
A|-1----------------------------------o|
E|-------------------------------------|

                                       (3x)
e|------10----------------10-----------|
B|------------------------------------o|
G|---10----10-(10)-----10----10-(10)---|
D|-8-----------------8-----------------|
A|------------------------------------o|
E|-------------------------------------|

                                                   D.S. al Coda
   N.C.                                                        Bb6add2
                                                                 ~~~
e|-----------------------------------------|--------------------------|
B|-----------------------------------------|--------------------------|
G|-----------------------------------------|-------3--5--(5)-5s==7----|
D|--------2--3--(3)-2h3-/5-----3--2--(2)-3-|----3---------------------|
A|-----0-----------------------------------|-1------------------------|
E|--0--------------------------------------|--------------------------|

e|-------12-------------------12-----------|------10-----------^10----|
B|-----------------------------------------|-------------------^-8----|
G|----14----14-(14)--------14----14-(14)---|---10----10-(10)---^10----|
D|-12-------------------12-----------------|-8-----------------^-8----|
A|-----------------------------------------|--------------------------|
E|-----------------------------------------|--------------------------|

     &
     D5                  Em7/D D5                 F6/D
(Gtr 1)
e|--------------15b17---(15)--------15b17-(15)---(15)\-|
B|o-------15------------------15-----------------------|
G|----/14----14------------------14--------------------|
D|-----------------------------------------------------|
A|o----------------------------------------------------|
E|-----------------------------------------------------|

(Gtr 2)
e|--------------15b17---(15)--------15b17-(15)---(15)\-|
B|o-------15------------------15-----------------------|
G|----/14----14------------------14--------------------|
D|-----------------------------------------------------|
A|o----------------------------------------------------|
E|-----------------------------------------------------|

(Gtr 5)
    PM|          PM---|        PM|          PM-|
e|-----------------------------------------------------|
B|o----------------------------------------------------|
G|-----------------------------------------------------|
D|---------0--------------5\---------0-------------7\--|
A|o-0---0--0-----0----0---7\---0--0--0------0--0---8\--|
E|--0---0--0-----0----0---0----0--0--0------0--0---0---|

   D5    Bb5     D5    Bbb5    D5    Ab6     D5    A5
     ~~~           ~~~           ~~~           ~~~
e|------------------------------------------------------------|
B|-/15-----(15)\-/14-----(14)\-/13-----(13)\-/14------(14)\--o|
G|------------------------------------------------------------|
D|------------------------------------------------------------|
A|-----------------------------------------------------------o|
E|------------------------------------------------------------|

     ~~~           ~~~           ~~~           ~~~
e|------------------------------------------------------------|
B|-----------------------------------------------------------o|
G|-/15-----(15)\-/14-----(14)\-/13-----(13)\-/14------(14)\---|
D|------------------------------------------------------------|
A|-----------------------------------------------------------o|
E|------------------------------------------------------------|

     PM|           PM|           PM|           PM|
e|------------------------------------------------------------|
B|-----------------------------------------------------------o|
G|------------------------------------------------------------|
D|-------3-------------2--------------------------------------|
A|---0-0-1---------0-0-1---------0-0-7---------0-0-7\--------o|
E|---0-0-----------0-0-----------0-0-6---------0-0-7\---------|

[Interlude]
(Faster Q=142)
  D5                      Bb5
(Gtrs 1, 2)
                               PM--------|
e|-----------------------|------------------|
B|-----------------------|------------------|
G|-----------------------|------------------|
D|--0-----0-(0)--0---0-0-|-8----------------|
A|--0-----0-(0)--0---0-0-|-8----8-8-8-8-8-8-|
E|--0-----0-(0)--0---0-0-|-8----8-8-8-8-8-8-|

(Gtr 5)
e|-----------------------|------------------|
B|--------5--6p5h6p5-----|----/10---8---5---|
G|-/7---7------------7---|------------------|
D|----7----------------7-|-8----------------|
A|-----------------------|------------------|
E|-----------------------|------------------|

  D5                      Bb5
                               PM--------|
e|-----------------------|------------------|
B|-----------------------|------------------|
G|-----------------------|------------------|
D|--0-----0-(0)--0---0-0-|-8----------------|
A|--0-----0-(0)--0---0-0-|-8----8-8-8-8-8-8-|
E|--0-----0-(0)--0---0-0-|-8----8-8-8-8-8-8-|

e|-----------------------|------------------|
B|--------5--6p5h6p5-----|----/10---8---5---|
G|-/7---7------------7---|----------------7-|
D|----7----------------7-|-8----------------|
A|-----------------------|------------------|
E|-----------------------|------------------|

   C/E           D5E5  F5                  G5    D5E6    G6
e|-------------------|-------------------|------------------|
B|-------------------|-------------------|------------------|
G|-------------------|-------------------|------------------|
D|-2-2---2-(2)-2-0-2-|-3-3---3-(3)-3-3-3-|-5-5-5---2-(2)S5--|
A|-3-3---3-(3)-3-0-2-|-3-3---3-(3)-3-3-3-|-5-5-5-0-4-(4)S7--|
E|-2-2---2-(2)-2-0-2-|-3-3---3-(3)-3-3-3-|-5-5-5-0-2-(2)S5--|

e|-6-5---------------|-5-----------------|------------------|
B|-----8-6--5----6-8-|---8-6-5-------5-6-|-8-6-5---5-(5)S8--|
G|-------------5-----|----------7--------|-------7----------|
D|-------------------|-------------------|------------------|
A|-------------------|-------------------|------------------|
E|-------------------|-------------------|------------------|

  D5                      Bb5
                               PM--------------------|
e|-----------------------|------------------------------|
B|-----------------------|------------------------------|
G|-----------------------|------------------------------|
D|--0-----0-(0)--0---0-0-|-8----------------------------|
A|--0-----0-(0)--0---0-0-|-8----8-8-8-8-8-8-8-8-8-8-8-8-|
E|--0-----0-(0)--0---0-0-|-8----8-8-8-8-8-8-8-8-8-8-8-8-|

e|-----------------------|------------------------------|
B|--------5--6p5h6p5-----|----/10-------8-------5-------|
G|-/7---7------------7---|------------------------------|
D|----7----------------7-|-8----------------------------|
A|-----------------------|------------------------------|
E|-----------------------|------------------------------|

  D5                     Bb5
                              PM--------------------|
e|----------------------|---------------------------------|
B|----------------------|---------------------------------|
G|----------------------|---------------------------------|
D|--0----0-(0)--0---0-0-|-8-------------------------------|
A|--0----0-(0)--0---0-0-|-8----8-8-8-8-8-8-8-8-8-8-8-8----|
E|--0----0-(0)--0---0-0-|-8----8-8-8-8-8-8-8-8-8-8-8-8----|

e|----------------------|---------------------------------|
B|-------5--6p5h6p5-----|----/10-------8-------5----------|
G|-/7--7------------7---|--------------------------7------|
D|--------------------7-|-8-------------------------------|
A|----------------------|---------------------------------|
E|----------------------|---------------------------------|

   C/E           D5E5  F5                  G5    D5E6    G6
e|-------------------|-------------------|------------------|
B|-------------------|-------------------|------------------|
G|-------------------|-------------------|------------------|
D|-2-2---2-(2)-2-0-2-|-3-3---3-(3)-3-3-3-|-5-5-5---2-(2)S5--|
A|-3-3---3-(3)-3-0-2-|-3-3---3-(3)-3-3-3-|-5-5-5-0-4-(4)S7--|
E|-2-2---2-(2)-2-0-2-|-3-3---3-(3)-3-3-3-|-5-5-5-0-2-(2)S5--|

e|-6-5---------------|-5-----------------|------------------|
B|-----8-6--5----6-8-|---8-6-5-------5-6-|-8-6-5---5-(5)S8--|
G|-------------5-----|----------7--------|-------7----------|
D|-------------------|-------------------|------------------|
A|-------------------|-------------------|------------------|
E|-------------------|-------------------|------------------|

  D5 N.C.     D5        Dm
      PM--------------|
e|-------------------|-----------------|
B|-------------------|-----------------|
G|-------------------|-----------------|
D|-0-----------------|---3-3-3-3-3-3-3-|
A|-0-----------0-0-0-|-0-5-5-5-5-5-5-5-|
E|-0---0---0-0-0-0-0-|-0---------------|

e|-------------------|-----------------|
B|-6--(6)\-----------|-----------------|
G|-------------------|-----------------|
D|-------------------|-----------------|
A|-------------------|-----------------|
E|-------------------|-----------------|

[Guitar Solo]
   Bb5
(Gtr 4)
e|-------------------------|--------------------------|
B|-------------------------|--------------------------|
G|-------------------------|--------------------------|
D|--8--8--8--8--8--8--8--8-|--8---8--8--8--8--8--8--8-|
A|--8--8--8--8--8--8--8--8-|--8---8--8--8--8--8--8--8-|
E|--8--8--8--8--8--8--8--8-|--8---8--8--8--8--8--8--8-|

(Gtr 1, 2)
e|-------------------------|--------------------------|
B|-------------------------|--------------------------|
G|-15-15-15-15-15-15-15-15-|-15--15-15-15-15s14-14s12-|
D|--x--x--x--x--x--x--x--x-|--x---x--x--x--x-----x----|
A|-13-13-13-13-13-13-13-13-|-13--13-13-13-13s12-12s10-|
E|-------------------------|--------------------------|

(Gtr 5)
    ~~~~~~~~~~~~~~~~~~~~~~~~~~~~~
e|-/6----------------------|-(6)----------/6--5-------|
B|-------------------------|---------------------8--6-|
G|-------------------------|--------------------------|
D|-------------------------|--------------------------|
A|-------------------------|--------------------------|
E|-------------------------|--------------------------|

   C5
e|-----------------------------|-----------------------------|
B|-----------------------------|-----------------------------|
G|-----------------------------|-----------------------------|
D|-10-10-10-10-10-10-10---10---|-10-10-10-10-10--10-10-10----|
A|-10-10-10-10-10-10-10---10---|-10-10-10-10-10--10-10-10----|
E|-10-10-10-10-10-10-10---10---|-10-10-10-10-10--10-10-10----|

e|-----------------------------|-----------------------------|
B|-----------------------------|-----------------------------|
G|-12-12-12-12-12-12-12---12---|-12-12-12-12-12--12-12-12S===|
D|--x--x--x--x--x--x--x----x---|--x--x--x--x--x---x--x--xS===|
A|-10-10-10-10-10-10-10---10---|-10-10-10-10-10--10-10-10S===|
E|-----------------------------|-----------------------------|

    ~~                            ~~~~~~~~~~~~~~~
e|-----------------------------|-----------------------------|
B|--5-----------------5h6p===5-|------------------------6----|
G|-----------------------------|--5----------(5)--5--7-------|
D|-----------------------------|-----------------------------|
A|-----------------------------|-----------------------------|
E|-----------------------------|-----------------------------|

   F5                       D5   C/E
e|-----------------------------|---------------------|
B|-----------------------------|---------------------|
G|-----------------------------|---------------------|
D|--3-----3--3---3--3--3--3----|--2--2--2--2-2-2-2-2-|
A|--3-----3--3---3--3--3--3--0-|--3--3--3--3-3-3-3-3-|
E|--3-----3--3---3--3--3--3--0-|--2--2--2--2-2-2-2-2-|

e|-----------------------------|---------------------|
B|-----------------------------|---------------------|
G|-14----14-14--14-14-14-14-12-|-12-12-12--9-9-9-9-9-|
D|--x-----x--x---x--x--x--x--x-|--x--x--x--x-x-x-x-x-|
A|-12----12-12--12-12-12-12-10-|-10-10-10--7-7-7-7-7-|
E|-----------------------------|---------------------|

             ~~~
e|-----------------------------|---------------------|
B|--8b10----(8)----------------|--5-------/6---5-----|
G|-----------------------------|-------------------5-|
D|-----------------------------|---------------------|
A|-----------------------------|---------------------|
E|-----------------------------|---------------------|

   D5
e|-------------------------|--------------------------|
B|-------------------------|--------------------------|
G|-------------------------|--------------------------|
D|--0--0--0--0--0--0--0--0-|--0---0--0--0--0--0--0--0-|
A|--0--0--0--0--0--0--0--0-|--0---0--0--0--0--0--0--0-|
E|--0--0--0--0--0--0--0--0-|--0---0--0--0--0--0--0--0-|

e|-------------------------|--------------------------|
B|-------------------------|--------------------------|
G|-10-10-10-10-10-10-10-10-|-10--10-10-10-10-10-10-10-|
D|--x--x--x--x--x--x--x--x-|--x---x--x--x--x--x--x--x-|
A|--8--8--8--8--8--8--8--8-|--8---8--8--8--8--8--8--8-|
E|-------------------------|--------------------------|

    ~~~~~~~~~~~~~~~~~~~~~~~~~~~~~
e|-------------------------|--------------------------|
B|-------------------------|--------------------------|
G|-/7----------------------|-(7)--------7--7--5--5----|
D|-------------------------|------------------------8-|
A|-------------------------|--------------------------|
E|-------------------------|--------------------------|

   Bb5
e|-----------------|-------------------------|
B|-----------------|-------------------------|
G|-----------------|-------------------------|
D|-8-8-8-8-8-8-8-8-|--8--8--8---8--8-8---8-8-|
A|-8-8-8-8-8-8-8-8-|--8--8--8---8--8-8---8-8-|
E|-8-8-8-8-8-8-8-8-|--8--8--8---8--8-8---8-8-|

e|-----------------|-------------------------|
B|-----------------|-------------------------|
G|-7-7-7-7-7-7-7-7-|--7--7--7---7--7-7---7-7-|
D|-x-x-x-x-x-x-x-x-|--x--x--x---x--x-x---x-x-|
A|-5-5-5-5-5-5-5-5-|--5--5--5---5--5-5---5-5-|
E|-----------------|-------------------------|

   ~~~~~~~~~~~~~~~~~~~~~~
e|-----------------|-------------------------|
B|-----------------|-------------------------|
G|-----------------|-------------------5---7-|
D|-8---------------|-(8)---(8)\---/8---------|
A|-----------------|-------------------------|
E|-----------------|-------------------------|

   C5
e|---------------------------|---------------------------|
B|---------------------------|---------------------------|
G|---------------------------|---------------------------|
D|-10-10-10-10-10---10-10-10-|-10-10-10-10-10--10-10-10--|
A|-10-10-10-10-10---10-10-10-|-10-10-10-10-10--10-10-10--|
E|-10-10-10-10-10---10-10-10-|-10-10-10-10-10--10-10-10--|

e|---------------------------|---------------------------|
B|---------------------------|---------------------------|
G|--9--9--9--9--9----9--9--9-|--9--9--9--9--9---9--9--9--|
D|--x--x--x--x--x----x--x--x-|--x--x--x--x--x---x--x--x--|
A|--7--7--7--7--7----7--7--7-|--7--7--7--7--7---7--7--7--|
E|---------------------------|---------------------------|

    ~~                                      ~~~
e|---------------------------|------------------------5S=|
B|-------------------------6-|--5--6--8--5-(5)-----------|
G|--5----------(5)\----------|---------------------------|
D|---------------------------|---------------------------|
A|---------------------------|---------------------------|
E|---------------------------|---------------------------|

   F5                           C/E
e|----------------------------|-------------------------------|
B|----------------------------|-------------------------------|
G|----------------------------|-------------------------------|
D|--3--3--3--3--3---3--3--3---|--2--2--2--2---2---2--2--2-----|
A|--3--3--3--3--3---3--3--3---|--3--3--3--3---3---3--3--3-----|
E|--3--3--3--3--3---3--3--3---|--2--2--2--2---2---2--2--2-----|

e|----------------------------|-------------------------------|
B|----------------------------|-------------------------------|
G|-10-10-10-10-10--10-10-10---|--9--9--9--9---9---9--9--9-----|
D|--x--x--x--x--x---x--x--x---|--x--x--x--x---x---x--x--x-----|
A|--8--8--8--8--8---8--8--8---|--7--7--7--7---7---7--7--7-----|
E|----------------------------|-------------------------------|

e|--8--6--5-------------------|-13-12-10----------------------|
B|-----------8-(8)--6--8-(8)\-|----------10-(10)-13-10-13b15==|
G|----------------------------|-------------------------------|
D|----------------------------|-------------------------------|
A|----------------------------|-------------------------------|
E|----------------------------|-------------------------------|

   D5
e|---------------------------|----------------------------------|
B|---------------------------|----------------------------------|
G|---------------------------|----------------------------------|
D|---0---0--0--0--0--0--0--0-|---0---0--0---0---0------0---0--0-|
A|---0---0--0--0--0--0--0--0-|---0---0--0---0---0------0---0--0-|
E|---0---0--0--0--0--0--0--0-|---0---0--0---0---0------0---0--0-|

e|---------------------------|----------------------------------|
B|---------------------------|----------------------------------|
G|--10--10-10-10-10-10-10-10-|--10--10-10--10--10-----10--10-10-|
D|---x---x--x--x--x--x--x--x-|---x---x--x---x---x------x---x--x-|
A|---8---8--8--8--8--8--8--8-|---8---8--8---8---8------8---8--8-|
E|---------------------------|----------------------------------|

e|---------------------------|----------------------------------|
B|-(13)----------------------|-(13)----13r(13)-13b15r(13)-13----|
G|---------------------------|----------------------------------|
D|---------------------------|----------------------------------|
A|---------------------------|----------------------------------|
E|---------------------------|----------------------------------|

[Verse]
   Bb5
e|-------------------------|---------------------------|
B|-------------------------|---------------------------|
G|-------------------------|---------------------------|
D|--8--8--8--8--8--8--8--8-|---8---8--8--8--8--8--8--8-|
A|--8--8--8--8--8--8--8--8-|---8---8--8--8--8--8--8--8-|
E|--8--8--8--8--8--8--8--8-|---8---8--8--8--8--8--8--8-|

e|-------------------------|---------------------------|
B|-------------------------|---------------------------|
G|-15-15-15-15-15-15-15-15-|--15--15-15-15-15s14-14s12-|
D|--x--x--x--x--x--x--x--x-|---x---x--x--x--x-----x----|
A|-13-13-13-13-13-13-13-13-|--13--13-13-13-13s12-12s10-|
E|-------------------------|---------------------------|

                               >
    ~~~~~~~~~~~~~~~~~~~~~~~~~~~~~~
e|-------------------------|---------------------------|
B|-11----------------------|-(11)----------------------|
G|-------------------------|---------------------------|
D|-------------------------|---------------------------|
A|-------------------------|---------------------------|
E|-------------------------|---------------------------|

   C5
e|-------------------------|--------------------------|
B|-------------------------|--------------------------|
G|-------------------------|--------------------------|
D|-10-10-10-10-10-10-10-10-|-10-10-10-10-10-10-10-10--|
A|-10-10-10-10-10-10-10-10-|-10-10-10-10-10-10-10-10--|
E|-10-10-10-10-10-10-10-10-|-10-10-10-10-10-10-10-10--|

e|-------------------------|--------------------------|
B|-------------------------|--------------------------|
G|-12-12-12-12-12-12-12-12-|-12-12-12-12-12-12-12-12S=|
D|--x--x--x--x--x--x--x--x-|--x--x--x--x--x--x--x--xS=|
A|-10-10-10-10-10-10-10-10-|-10-10-10-10-10-10-10-10S=|
E|-------------------------|--------------------------|

e|-------------------------|--------------------------|
B|-------------------------|--------------------------|
G|-------------------------|--------------------------|
D|-------------------------|--------------------------|
A|-------------------------|--------------------------|
E|-------------------------|--------------------------|

   F5                        C/E
(Gtr 4)
e|-------------------------|--------------------|
B|-------------------------|--------------------|
G|-------------------------|--------------------|
D|--3--3--3--3--3--3--3--3-|--2--2--2-2-2-2-2-2-|
A|--3--3--3--3--3--3--3--3-|--3--3--3-3-3-3-3-3-|
E|--3--3--3--3--3--3--3--3-|--2--2--2-2-2-2-2-2-|

(Gtr 1, 2)
e|-------------------------|--------------------|
B|-------------------------|--------------------|
G|-14-14-14-14-14-14-14-12-|-12-12-12-9-9-9-9-9-|
D|--x--x--x--x--x--x--x--x-|--x--x--x-x-x-x-x-x-|
A|-12-12-12-12-12-12-12-10-|-10-10-10-7-7-7-7-7-|
E|-------------------------|--------------------|

   D5
e|-------------------------|-------------------------|
B|-------------------------|-------------------------|
G|-------------------------|-------------------------|
D|--0--0--0--0--0--0--0--0-|--0--0--0--0--0--0--0--0-|
A|--0--0--0--0--0--0--0--0-|--0--0--0--0--0--0--0--0-|
E|--0--0--0--0--0--0--0--0-|--0--0--0--0--0--0--0--0-|

e|-------------------------|-------------------------|
B|-------------------------|-------------------------|
G|-10-10-10-10-10-10-10-10-|-10-10-10-10-10-10-10-10-|
D|--x--x--x--x--x--x--x--x-|--x--x--x--x--x--x--x--x-|
A|--8--8--8--8--8--8--8--8-|--8--8--8--8--8--8--8--8-|
E|-------------------------|-------------------------|

   Bb5
e|-----------------|-----------------|
B|-----------------|-----------------|
G|-----------------|-----------------|
D|-8-8-8-8-8-8-8-8-|-8-8-8-8-8-8-8-8-|
A|-8-8-8-8-8-8-8-8-|-8-8-8-8-8-8-8-8-|
E|-8-8-8-8-8-8-8-8-|-8-8-8-8-8-8-8-8-|

e|-----------------|-----------------|
B|-----------------|-----------------|
G|-7-7-7-7-7-7-7-7-|-7-7-7-7-7-7-7-7-|
D|-x-x-x-x-x-x-x-x-|-x-x-x-x-x-x-x-x-|
A|-5-5-5-5-5-5-5-5-|-5-5-5-5-5-5-5-5-|
E|-----------------|-----------------|

   C5
e|-------------------------|-------------------------|
B|-------------------------|-------------------------|
G|-------------------------|-------------------------|
D|-10-10-10-10-10-10-10-10-|-10-10-10-10-10-10-10-10-|
A|-10-10-10-10-10-10-10-10-|-10-10-10-10-10-10-10-10-|
E|-10-10-10-10-10-10-10-10-|-10-10-10-10-10-10-10-10-|

e|-------------------------|-------------------------|
B|-------------------------|-------------------------|
G|--9--9--9--9--9--9--9--9-|--9--9--9--9--9--9--9--9-|
D|--x--x--x--x--x--x--x--x-|--x--x--x--x--x--x--x--x-|
A|--7--7--7--7--7--7--7--7-|--7--7--7--7--7--7--7--7-|
E|-------------------------|-------------------------|

   D5                        C/E
e|-------------------------|-----------------|
B|-------------------------|-----------------|
G|-------------------------|-----------------|
D|-12-12-12-12-12-12-12-12-|-2-2-2-2-2-2-2-2-|
A|-12-12-12-12-12-12-12-12-|-3-3-3-3-3-3-3-3-|
E|-12-12-12-12-12-12-12-12-|-2-2-2-2-2-2-2-2-|

e|-------------------------|-----------------|
B|-------------------------|-----------------|
G|-10-10-10-10-10-10-10-10-|-9-9-9-9-9-9-9-9-|
D|--x--x--x--x--x--x--x--x-|-x-x-x-x-x-x-x-x-|
A|--8--8--8--8--8--8--8--8-|-7-7-7-7-7-7-7-7-|
E|-------------------------|-----------------|

   F5
e|-------------------------|-------------------------|
B|-------------------------|-------------------------|
G|-------------------------|-------------------------|
D|--3--3--3--3--3--3--3--3-|--3--3--3--3--3--3--3--3-|
A|--3--3--3--3--3--3--3--3-|--3--3--3--3--3--3--3--3-|
E|--3--3--3--3--3--3--3--3-|--3--3--3--3--3--3--3--3-|

e|-------------------------|-------------------------|
B|-------------------------|-------------------------|
G|-10-10-10-10-10-10-10-10-|-10-10-10-10-10-10-10-10-|
D|--x--x--x--x--x--x--x--x-|--x--x--x--x--x--x--x--x-|
A|--8--8--8--8--8--8--8--8-|--8--8--8--8--8--8--8--8-|
E|-------------------------|-------------------------|

   G5
e|-------------------------|-------------------------|
B|-------------------------|-------------------------|
G|-------------------------|-------------------------|
D|--5--5--5--5--5--5--5--5-|--5--5--5--5--5--5--5--5-|
A|--5--5--5--5--5--5--5--5-|--5--5--5--5--5--5--5--5-|
E|--5--5--5--5--5--5--5--5-|--5--5--5--5--5--5--5--5-|

e|-------------------------|-------------------------|
B|-------------------------|-------------------------|
G|-15-15-15-15-15-15-15-15-|-15-15-15-15-15s14-14s12-|
D|--x--x--x--x--x--x--x--x-|--x--x--x--x--x-----x----|
A|-13-13-13-13-13-13-13-13-|-13-13-13-13-13s12-12s10-|
E|-------------------------|-------------------------|

   C5
e|-------------------------|--------------------------|
B|-------------------------|--------------------------|
G|-------------------------|--------------------------|
D|-10-10-10-10-10-10-10-10-|-10-10-10-10-10-10-10-10--|
A|-10-10-10-10-10-10-10-10-|-10-10-10-10-10-10-10-10--|
E|-10-10-10-10-10-10-10-10-|-10-10-10-10-10-10-10-10--|

e|-------------------------|--------------------------|
B|-------------------------|--------------------------|
G|-12-12-12-12-12-12-12-12-|-12-12-12-12-12-12-12-12S=|
D|--x--x--x--x--x--x--x--x-|--x--x--x--x--x--x--x--xS=|
A|-10-10-10-10-10-10-10-10-|-10-10-10-10-10-10-10-10S=|
E|-------------------------|--------------------------|

   D5                        C/E
e|-------------------------|--------------------|
B|-------------------------|--------------------|
G|-------------------------|--------------------|
D|-12-12-12-12-12-12-12-12-|--2--2--2-2-2-2-2-2-|
A|-12-12-12-12-12-12-12-12-|--3--3--3-3-3-3-3-3-|
E|-12-12-12-12-12-12-12-12-|--2--2--2-2-2-2-2-2-|

e|-------------------------|--------------------|
B|-------------------------|--------------------|
G|-14-14-14-14-14-14-14-12-|-12-12-12-9-9-9-9-9-|
D|--x--x--x--x--x--x--x--x-|--x--x--x-x-x-x-x-x-|
A|-12-12-12-12-12-12-12-10-|-10-10-10-7-7-7-7-7-|
E|-------------------------|--------------------|

  F5
      PM-----------------------------------------|
e|-------------------------|-------------------------|
B|-------------------------|-------------------------|
G|-------------------------|-------------------------|
D|--3----------------------|-------------------------|
A|--3--3--3--3--3--3--3--3-|--3--3--3--3--3--3--3--3-|
E|--3--3--3--3--3--3--3--3-|--3--3--3--3--3--3--3--3-|

e|-------------------------|-------------------------|
B|-------------------------|-------------------------|
G|-10-10-10-10-10-10-10-10-|-10-10-10-10-10-10-10-10-|
D|--x--x--x--x--x--x--x--x-|--x--x--x--x--x--x--x--x-|
A|--8--8--8--8--8--8--8--8-|--8--8--8--8--8--8--8--8-|
E|-------------------------|-------------------------|

[Chorus]
(a Tempo Q=69)
     D5          Em7D5                    F6/D
(Gtr 1)
   ~~~~~~~~~~~~~~~~~~~~~~~~~~~~~~~~~~~~~~~
e|------------------------------------------|
B|o-/15------------15b18====(15)-(15)r------|
G|------------------------------------------|
D|------------------------------------------|
A|o-----------------------------------------|
E|------------------------------------------|

(Gtr 2)
     ~~~~~~~~~~~~~~~~~~~~~~~~~~~~~~~~~~~~~~~
e|------------------------------------------|
B|o-/15------------15b18====(15)-(15)r------|
G|------------------------------------------|
D|------------------------------------------|
A|o-----------------------------------------|
E|------------------------------------------|

(Gtr 5)
      PM|   PM|     PM----|        PM--|
e|------------------------------------------|
B|o-----------------------------------------|
G|------------------------------------------|
D|--------0-----5\------------0----------7\-|
A|o---0-0-0-0-0-7\--0-----0---0----0---0-8\-|
E|----0-0-0-0-0-0---0-----0---0----0---0-0--|

   D5    BbD5  BbD5      AbD5     A5
  ~~~~~~~~~~~~~~~~~~~~~~~~~~~~~~
e|------------------------------------|
B|-/11-------------------------------o|
G|---------------12b14-----(12)-------|
D|------------------------------------|
A|-----------------------------------o|
E|------------------------------------|

  ~~~~~~~~~~~~~~~~~~~~~~~~~~~~~~
e|------------------------------------|
B|-/11-------------------------------o|
G|---------------12b14-----(12)-------|
D|------------------------------------|
A|-----------------------------------o|
E|------------------------------------|

    PM|   PM|    PM---|     PM-|
e|------------------------------------|
B|-----------------------------------o|
G|------------------------------------|
D|-------3-----2----------------------|
A|---0-0-1-0-0-1--0----0-7---0--0-7\-o|
E|---0-0---0-0----0----0-6---0--0-7\--|

     D5                  Em7/D D5                 F6/D
e|--------------15b17---(15)--------15b17-(15)---(15)\-|
B|o-------15------------------15-----------------------|
G|----/14----14------------------14--------------------|
D|-----------------------------------------------------|
A|o----------------------------------------------------|
E|-----------------------------------------------------|

e|--------------15b17---(15)--------15b17-(15)---(15)\-|
B|o-------15------------------15-----------------------|
G|----/14----14------------------14--------------------|
D|-----------------------------------------------------|
A|o----------------------------------------------------|
E|-----------------------------------------------------|

    PM|          PM---|        PM|          PM-|
e|-----------------------------------------------------|
B|o----------------------------------------------------|
G|-----------------------------------------------------|
D|---------0--------------5\---------0-------------7\--|
A|o-0---0--0-----0----0---7\---0--0--0------0--0---8\--|
E|--0---0--0-----0----0---0----0--0--0------0--0---0---|

   D5    Bb5     D5    Bbb5    D5    Ab6     D5    A5
     ~~~           ~~~           ~~~           ~~~
e|------------------------------------------------------------|
B|-/15-----(15)\-/14-----(14)\-/13-----(13)\-/14------(14)\--o|
G|------------------------------------------------------------|
D|------------------------------------------------------------|
A|-----------------------------------------------------------o|
E|------------------------------------------------------------|

     ~~~           ~~~           ~~~           ~~~
e|------------------------------------------------------------|
B|-----------------------------------------------------------o|
G|-/15-----(15)\-/14-----(14)\-/13-----(13)\-/14------(14)\---|
D|------------------------------------------------------------|
A|-----------------------------------------------------------o|
E|------------------------------------------------------------|

     PM|           PM|           PM|           PM|
e|------------------------------------------------------------|
B|-----------------------------------------------------------o|
G|------------------------------------------------------------|
D|-------3-------------2--------------------------------------|
A|---0-0-1---------0-0-1---------0-0-7---------0-0-7\--------o|
E|---0-0-----------0-0-----------0-0-6---------0-0-7\---------|

[Breakdown]
   D5
(Gtr 1, 2)
e|---------------------------|---------------------------|
B|---------------------------|---------------------------|
G|-9----------10S======7-----|-9----------10S======7-----|
D|-x-----------xS======x-----|-x-----------xS======x-----|
A|-7-----------8S======5-----|-7-----------8S======5-----|
E|---------------------------|---------------------------|

(Gtr 5)
  PM----|     PM----|         PM----|     PM----|
e|---------------------------|---------------------------|
B|---------------------------|---------------------------|
G|---------------------------|---------------------------|
D|---------0-----------0-0---|---------0-----------0-0---|
A|-0-0-0-0-0---0-0-0-0-0-0---|-0-0-0-0-0---0-0-0-0-0-0---|
E|-0-0-0-0-0---0-0-0-0-0-0---|-0-0-0-0-0---0-0-0-0-0-0---|

   D5
e|---------------------------|
B|---------------------------|
G|-9----------10S======7-----|
D|-x-----------xS======x-----|
A|-7-----------8S======5-----|
E|---------------------------|

  PM----|     PM----|
e|---------------------------|
B|---------------------------|
G|---------------------------|
D|---------0-----------0-0---|
A|-0-0-0-0-0---0-0-0-0-0-0---|
E|-0-0-0-0-0---0-0-0-0-0-0---|

e|-12-------------13----10---------(10)---(10)-------|
B|-15b17----------16b18-13b15======(13)r==(13)-------|
G|---------------------------------------------------|
D|---------------------------------------------------|
A|---------------------------------------------------|
E|---------------------------------------------------|

   PM-------|                 PM|      PM---------|
e|---------------------------------------------------|
B|---------------------------------------------------|
G|---------------------------------------------------|
D|-------------0-------------------------------------|
A|--0----0-0-0-0---------------0-0------0---0--0-0-0-|
E|--0----0-0-0-0---------------0-0------0---0--0-0-0-|

[Outro]
   D5         (Dmadd2)
(Gtr 5)
               >
e|----------|---------------------------------------|
B|----------|---------------------------------------|
G|----------|---------------------------------------|
D|-0--------|-(0)-----------------------------------|
A|-0--------|-(0)-----------------------------------|
E|-0--------|-(0)-----------------------------------|

(Gtr 3, 4)
e|----------|-------0-------0-----5-----0-(0)-----0-|
B|----------|---------6-(6)-----------6-------------|
G|----------|-----2-----------2---------------2-----|
D|----------|--0----------------0---0-----------0---|
A|----------|---------------------------------------|
E|----------|---------------------------------------|

   (Bbmaj7add4)
e|-----------------------------------|
B|-----------------------------------|
G|-----------------------------------|
D|-(0)-------------------------------|
A|-(0)-------------------------------|
E|-(0)-------------------------------|

e|---------0-(0)-------5---0---------|
B|-------3-------3-----------3-(3)---|
G|-----3-----------3-----------------|
D|-----------------------3-----------|
A|--1----------------1---------------|
E|-----------------------------------|

   (Dmadd2)                              (Bbmaj7add4)
(Gtr 3, 4)
e|-----0-------0-----5-----0-(0)-----0-|-------0-(0)-------5---0------|
B|-------6-(6)-----------6-------------|-----3-------3-----------3----|
G|---2-----------2---------------2-----|---3-----------3-----------0--|
D|-0---------------0---0-----------0---|---------------------3--------|
A|-------------------------------------|-1---------------1------------|
E|-------------------------------------|------------------------------|

   (Dmadd2)
(Gtr 3)
e|--------0---------0------5--------0--(0)-----0-|
B|-----------6--(6)--------------6---------------|
G|-----2--------------2--------------------2-----|
D|--0-------------------0-----0--------------0---|
A|-----------------------------------------------|
E|-----------------------------------------------|

(Gtr 4)
e|-------12---------------------12---------------|
B|-----------------------------------------------|
G|----14----14-(14)----------14----14-(14)-------|
D|-12---------------------12---------------------|
A|-----------------------------------------------|
E|-----------------------------------------------|

(Gtr 2)
e|-----------------------------------------------|
B|-----------------------------------------------|
G|-----------------------------------------------|
D|--------2--3--(3)---2h3-/5-----3--2--(2)-3-----|
A|-----0-----------------------------------------|
E|--0--------------------------------------------|

   (Bbmaj7add4)
e|----------0--(0)-------5-----0----------|
B|-------3---------3--------------3-------|
G|----3--------------3----------------0---|
D|--------------------------3-------------|
A|-1-------------------1------------------|
E|----------------------------------------|

e|------10--------------------10----------|
B|----------------------------------------|
G|---10----10-(10)---------10----10-(10)--|
D|-8---------------------8----------------|
A|----------------------------------------|
E|----------------------------------------|

                         ~
e|----------------------------------------|
B|----------------------------------------|
G|-------3--5--(5)-----5s7----------------|
D|----3-----------------------------------|
A|-1--------------------------------------|
E|----------------------------------------|

   (Dmadd2)
e|--------0---------0------5--------0--(0)-----0-|
B|-----------6--(6)--------------6---------------|
G|-----2--------------2--------------------2-----|
D|--0-------------------0-----0--------------0---|
A|-----------------------------------------------|
E|-----------------------------------------------|

e|-------12---------------------12---------------|
B|-----------------------------------------------|
G|----14----14-(14)----------14----14-(14)-------|
D|-12---------------------12---------------------|
A|-----------------------------------------------|
E|-----------------------------------------------|

e|-----------------------------------------------|
B|-----------------------------------------------|
G|-----------------------------------------------|
D|--------2--3--(3)---2h3-/5-----3--2--(2)-3-----|
A|-----0-----------------------------------------|
E|--0--------------------------------------------|

   (Bbmaj7add4)          Bbadd4
e|----------0--(0)-------^-0----*|
B|-------3---------3-----^-3----*|
G|----3--------------3---^-3----*|
D|------------------------------*|
A|-1-------------------1--------*|
E|------------------------------*|

e|------10---------------^10----*|
B|-----------------------^-8----*|
G|---10----10-(10)-------^10----*|
D|-8---------------------^-8----*|
A|------------------------------*|
E|------------------------------*|

                           ~~~
e|------------------------------*|
B|------------------------------*|
G|-------3--5--(5)-----5s==7----*|
D|----3-------------------------*|
A|-1----------------------------*|
E|------------------------------*|


************************************

| (n)  Ghost note
| /    Slide up
| ~    Vibrato
| \    Slide down
| PM   Palm mute
| b    Bend
| h    Hammer-on
| p    Pull-off
| x    Dead note
| >    Accented note
| *    Natural harmonic

************************************
Suggest correction
comments
print report bad tab
8 comments total. Showing first comments.
0 reply
kiefermatot 10,367 Dec 31, 2005 12:11 PM

Awesome.

0 reply
NoideaDrivethru 10 May 13, 2006 10:24 AM

Yeah dude, I think you pretty much hit the nail on the head for this one. Great tab.

0 reply
Lord Of Donkeys 220 Jun 28, 2007 08:16 AM

nice work

guest
You may want to rate the tab now too:
select rating
Wanna post a correction for this tab? Suggest correction