Oops, an error
Loading. Please wait.

Coming Home bass

version 1
version 1

Whole song

5,917 views 1 this week
5 commentsread comments
1 2 3 4 5
x 5
add to favorites
×
Save as Personal and add changes to this tab that will be seen only by you. Learn more ›
×
You can save this tab as Personal to edit and correct it or add notes. All changes will be seen only by you. Learn more »
launch autoscroll
font size
0
reset
guitar tuner
backing track
0:00
0:00
edit
Autoscroll
slow
fast
+/-
esc
set tempo
stop
Be appreciative and thankful for what you've got.

0:50
G|---------------------------------|
D|---------------------------------|
A|---------------------------------|
D|---------------------------------|
B|-0-------------------------------|
   1 + 2 + 3 + 4 + 1 + 2 + 3 + 4 + 

G|-----------------------------------------------------------------|
D|---------------6-------------------------------6-------------1---|
A|-2h4-4-4-4-4-4---4-4-4-4-4-4-4-4-2h4-4-4-4-4-4---4-4-4-4-2-4---2-|
D|-----------------------------------------------------------------|
B|-----------------------------------------------------------------|
   1 + 2 + 3 + 4 + 1 + 2 + 3 + 4 + 1 + 2 + 3 + 4 + 1 + 2 + 3 + 4 +

G|-----------------------------------------------------------------|
D|---------------4-----------------4-------------------------------|
A|-2h4-4-4-4-4-4---4-4-4-4-4-4-4-4-------7-----6-----4-----6---7---|
D|-----------------------------------------------------------------|
B|-----------------------------------------------------------------|
   1 + 2 + 3 + 4 + 1 + 2 + 3 + 4 + 1 + 2 + 3 + 4 + 1 + 2 + 3 + 4 +

Verse 1:04
G|-----------------------------------------------------------------|
D|---------------6-------------------------------6-----6---6-4-----|
A|-2h4-4-4-4-4-4---4-4-4-4-4-4-4-4-2h4-4-4-4-4-4---4-4---4-----7-6-|
D|-----------------------------------------------------------------|
B|-----------------------------------------------------------------|
   1 + 2 + 3 + 4 + 1 + 2 + 3 + 4 + 1 + 2 + 3 + 4 + 1 + 2 + 3 + 4 +

G|-----------------------------------------------------------------|
D|---------------4-----------------4-------------------------------|
A|-2h4-4-4-4-4-4---4-4-4-4-4-4-4-4-------7-----6-----4-----6---7---|
D|-----------------------------------------------------------------|
B|-----------------------------------------------------------------|
   1 + 2 + 3 + 4 + 1 + 2 + 3 + 4 + 1 + 2 + 3 + 4 + 1 + 2 + 3 + 4 +

G|-----------------------------------------------------------------|
D|---------------6-------------------------------6-------------1---|
A|-2h4-4-4-4-4-4---4-4-4-4-4-4-4-4-2h4-4-4-4-4-4---4-4-4-4-2-4---2-|
D|-----------------------------------------------------------------|
B|-----------------------------------------------------------------|
   1 + 2 + 3 + 4 + 1 + 2 + 3 + 4 + 1 + 2 + 3 + 4 + 1 + 2 + 3 + 4 +

G|-----------------------------------------------------------------|
D|---------------4-----------------4-------------------------------|
A|-2h4-4-4-4-4-4---4-4-4-4-4-4-4-4-------7-----6-----4-----6---7---|
D|-----------------------------------------------------------------|
B|-----------------------------------------------------------------|
   1 + 2 + 3 + 4 + 1 + 2 + 3 + 4 + 1 + 2 + 3 + 4 + 1 + 2 + 3 + 4 +

Pre Chorus 1:26
G|-----------------------------------------------------------------|
D|-----------------------------------------------------------------|
A|---------------------------------4-5---2-4---0-2-----------------|
D|-0-----0-----0-----0-0---0---0---------------------6-7---6-7-6-2-|
B|-----------------------------------------------------------------|
   1 + 2 + 3 + 4 + 1 + 2 + 3 + 4 + 1 + 2 + 3 + 4 + 1 + 2 + 3 + 4 +

Chorus 1:32
G|-----------------------------------------------------------------|
D|---------------------------------------------------------7-6-----|
A|-----------------------------------------------------5-7-----7-5-|
D|-4---4-4---4-4-----4-4---4-6-7-6-2---2-2---2-2-----2-------------|
B|-----------------------------------------------------------------|
   1 + 2 + 3 + 4 + 1 + 2 + 3 + 4 + 1 + 2 + 3 + 4 + 1 + 2 + 3 + 4 +

G|-----------------------------------------------------------------|
D|-----------------------------------------------------------------|
A|---------------------5---5-0-5-7---------------------------------|
D|-0---0-0---0-0-----0-------------2-2-2-2-----2-2-2-2-----2-2-2-2-|
B|-----------------------------------------------------------------|
   1 + 2 + 3 + 4 + 1 + 2 + 3 + 4 + 1 + 2 + 3 + 4 + 1 + 2 + 3 + 4 +

G|-----------------------------------------------------------------|
D|---------------------------------------------------------7-6-----|
A|-----------------------------------------------------5-7-----7-5-|
D|-4---4-4---4-4-----4-4---4-6-7-6-2---2-2---2-2-----2-------------|
B|-----------------------------------------------------------------|
   1 + 2 + 3 + 4 + 1 + 2 + 3 + 4 + 1 + 2 + 3 + 4 + 1 + 2 + 3 + 4 +

G|-----------------------------------------------------------------|
D|-----------------------------------------------------------------|
A|-------------------0-5-0-5-0-7-5---------------------------------|
D|-0---0-0---0-0-------------------2-2-2-2-----2-2-2-2-----2-2-2-2-|
B|-----------------------------------------------------------------|
   1 + 2 + 3 + 4 + 1 + 2 + 3 + 4 + 1 + 2 + 3 + 4 + 1 + 2 + 3 + 4 +

Interlude 1:52
G|-----------------------------------------------------------------|
D|-----------------------------------------------------------------|
A|-----------------------------------------------------------------|
D|-4---------------------------------------------------------------|
B|-----------------------------------------------------------------|
   1 + 2 + 3 + 4 + 1 + 2 + 3 + 4 + 1 + 2 + 3 + 4 + 1 + 2 + 3 + 4 +

1:57 Verse
G|-----------------------------------------------------------------|
D|---------------6-------------------------------6-----6---6---6---|
A|-2h4-4-4-4-4-4---4-4-4-4-4-4-4-4-2h4-4-4-4-4-4---4-4---4---4---4-|
D|-----------------------------------------------------------------|
B|-----------------------------------------------------------------|
   1 + 2 + 3 + 4 + 1 + 2 + 3 + 4 + 1 + 2 + 3 + 4 + 1 + 2 + 3 + 4 +

G|-----------------------------------------------------------------|
D|---------------4-----------------4-------------------------------|
A|-2h4-4-4-4-4-4---4-4-4-4-4-4-4-4-------7-----6-----4-----6---7---|
D|-----------------------------------------------------------------|
B|-----------------------------------------------------------------|
   1 + 2 + 3 + 4 + 1 + 2 + 3 + 4 + 1 + 2 + 3 + 4 + 1 + 2 + 3 + 4 +

G|-----------------------------------------------------------------|
D|---------------6-------------------------------6-------------1-2-|
A|-2h4-4-4-4-4-4---4-4-4-4-4-4-4-4-2h4-4-4-4-4-4---4-4-4-4-2-4-----|
D|-----------------------------------------------------------------|
B|-----------------------------------------------------------------|
   1 + 2 + 3 + 4 + 1 + 2 + 3 + 4 + 1 + 2 + 3 + 4 + 1 + 2 + 3 + 4 +

G|-----------------------------------------------------------------|
D|---------------4-----------------4-------------------------------|
A|-2h4-4-4-4-4-4---4-4-4-4-4-4-4-4-------7-----6-----4-----6---7---|
D|-----------------------------------------------------------------|
B|-----------------------------------------------------------------|
   1 + 2 + 3 + 4 + 1 + 2 + 3 + 4 + 1 + 2 + 3 + 4 + 1 + 2 + 3 + 4 +

Pre Chorus 2:20
G|-----------------------------------------------------------------|
D|-----------------------------------------------------------------|
A|---------------------------------4-5---2-4---0-2-----------------|
D|-0-----0-----0-----0-0---0---0---------------------6-7---6-7-6-2-|
B|-----------------------------------------------------------------|
   1 + 2 + 3 + 4 + 1 + 2 + 3 + 4 + 1 + 2 + 3 + 4 + 1 + 2 + 3 + 4 +

Chorus 2:25
G|-----------------------------------------------------------------|
D|---------------------------------------------------------7-6-----|
A|-----------------------------------------------------7-------7-5-|
D|-4---4-4---4-4-----4-4---4-6-7-6-2---2-2---2-2-----2-------------|
B|-----------------------------------------------------------------|
   1 + 2 + 3 + 4 + 1 + 2 + 3 + 4 + 1 + 2 + 3 + 4 + 1 + 2 + 3 + 4 +

G|-----------------------------------------------------------------|
D|-----------------------------------------------------------------|
A|---------------------5---5-0-5-7---------------------------------|
D|-0---0-0---0-0-----0-------------2-2-2-2-----2-2-2-2-----2-2-2-2-|
B|-----------------------------------------------------------------|
   1 + 2 + 3 + 4 + 1 + 2 + 3 + 4 + 1 + 2 + 3 + 4 + 1 + 2 + 3 + 4 +

G|-----------------------------------------------------------------|
D|-----------------------------------------------------9---7-6-----|
A|-------------------------------------------------------------7-5-|
D|-4---4-4---4-4-----4-4---4-6-7-6-2---2-2---2-2-----2-------------|
B|-----------------------------------------------------------------|
   1 + 2 + 3 + 4 + 1 + 2 + 3 + 4 + 1 + 2 + 3 + 4 + 1 + 2 + 3 + 4 +

G|-----------------------------------------------------------------|
D|-----------------------------------------------------------------|
A|-------------------0-5-0-5-0-7-5---------------------------------|
D|-0---0-0---0-0-------------------2-2-2-2-----2-2-2-2-----2-2-2-2-|
B|-----------------------------------------------------------------|
   1 + 2 + 3 + 4 + 1 + 2 + 3 + 4 + 1 + 2 + 3 + 4 + 1 + 2 + 3 + 4 +

Solo 2:46
G|-----------------------------------------------------------------|
D|-----------------------------------------------------------------|
A|-----------------------------------------------------------------|
D|-4-4-4-4-4-4-4-------------------2-2-2-2-2-2-2-------------------|
B|-----------------------------------------------------------------|
   1 + 2 + 3 + 4 + 1 + 2 + 3 + 4 + 1 + 2 + 3 + 4 + 1 + 2 + 3 + 4 +

G|-----------------------------------------------------------------|
D|-----------------------------------------------------------------|
A|-----------------------------------------------------------------|
D|-0-0-0-0-0-0-0-------------------2---2-2-2-2-2-2-2-2-2-2-2-2-2-2-|
B|-----------------------------------------------------------------|
   1 + 2 + 3 + 4 + 1 + 2 + 3 + 4 + 1 + 2 + 3 + 4 + 1 + 2 + 3 + 4 +

2:57
G|------------------------------------------------------------------|
D|o-6-----7-----4-----6-------------6-----7-----4-----6-------------|
A|----4-4---4-4---4-4---4-4-----------4-4---4-4---4-4---4-4---------|
D|o-----------------------------------------------------------------|
B|--------------------------2-2-2-2-------------------------2-2-2-2-|
    1 + 2 + 3 + 4 + 1 + 2 + 3 + 4 + 1 + 2 + 3 + 4 + 1 + 2 + 3 + 4 +

G|------------------------------------------------------------------|
D|-6-----7-----4-----6-------------4-----2-----1-----2-----1-2-1-2-o|
A|---4-4---4-4---4-4---4-4-----------2-2---2-2---2-2---2-2----------|
D|-----------------------------------------------------------------o|
B|-------------------------2-2-2-2----------------------------------|
   1 + 2 + 3 + 4 + 1 + 2 + 3 + 4 + 1 + 2 + 3 + 4 + 1 + 2 + 3 + 4 +

3:19
G|-----------------------------------------------------------------|
D|-----------------------------------------------------------------|
A|-0---0-0---0-0-----0-0---0-0-0-0-2---2-2---2-2-----2-2---2-2-2-2-|
D|-----------------------------------------------------------------|
B|-----------------------------------------------------------------|
   1 + 2 + 3 + 4 + 1 + 2 + 3 + 4 + 1 + 2 + 3 + 4 + 1 + 2 + 3 + 4 +

G|-----------------------------------------------------------------|
D|-----------------------------------------------------------------|
A|-----------------------------------------------------------------|
D|-------------------------2-4-2---------------------------2-4-2-6-|
B|-2---2-2-2-2-2-2-2-2-2-2-------0-2---2-2-2-2-2-2-2-2-2-2---------|
   1 + 2 + 3 + 4 + 1 + 2 + 3 + 4 + 1 + 2 + 3 + 4 + 1 + 2 + 3 + 4 +

G|-----------------------------------------------------------------|
D|-----------------------------------------------------------------|
A|-0---0-0---0-0-----0-0---0-0-0-0-2---2-2---2-2---2-2-2-2-2-2-2-2-|
D|-----------------------------------------------------------------|
B|-----------------------------------------------------------------|
   1 + 2 + 3 + 4 + 1 + 2 + 3 + 4 + 1 + 2 + 3 + 4 + 1 + 2 + 3 + 4 +

G|-----------------------------------------------------------------|
D|-----------------------------------------------------------------|
A|-----------------------------------------------------------------|
D|-------------------------2-4-2---------------------------2-4-2-6-|
B|-2---2-2-2-2-2-2-2-2-2-2-------0-2---2-2-2-2-2-2-2-2-2-2---------|
   1 + 2 + 3 + 4 + 1 + 2 + 3 + 4 + 1 + 2 + 3 + 4 + 1 + 2 + 3 + 4 +

3:40
G|-----------------------------------------------------------------|
D|-----------------------------------------------------------------|
A|-0---0-0---0-0-----0-0---0-0---0-2---2-2---2-2-----2-2---2-2-0-2-|
D|-----------------------------6-----------------------------------|
B|-----------------------------------------------------------------|
   1 + 2 + 3 + 4 + 1 + 2 + 3 + 4 + 1 + 2 + 3 + 4 + 1 + 2 + 3 + 4 +

G|-----------------------------------------------------------------|
D|-------------------------1-2-1-----------------------1---1-2-1---|
A|-4---4-4---4-4-----4-4---------4-2---2-2---2-2-----2---2-------2-|
D|-----------------------------------------------------------------|
B|-----------------------------------------------------------------|
   1 + 2 + 3 + 4 + 1 + 2 + 3 + 4 + 1 + 2 + 3 + 4 + 1 + 2 + 3 + 4 +

G|-----------------------------------------------------------------|
D|-----------------------------------------------------1---1-2-----|
A|-0---0-0---0-0-----0-0---0-0---0-2---2-2---2-2-----2---2-----2-3-|
D|-----------------------------6-----------------------------------|
B|-----------------------------------------------------------------|
   1 + 2 + 3 + 4 + 1 + 2 + 3 + 4 + 1 + 2 + 3 + 4 + 1 + 2 + 3 + 4 +

G|-----------------------------------------------------------------|
D|-------------------------1-2-1-----------------------1---1-2-1---|
A|-4---4-4---4-4-----4-4---------4-2---2-2-2-2-2-2-2-2---2-------2-|
D|-----------------------------------------------------------------|
B|-----------------------------------------------------------------|
   1 + 2 + 3 + 4 + 1 + 2 + 3 + 4 + 1 + 2 + 3 + 4 + 1 + 2 + 3 + 4 +

4:02
G|-----------------------------------------------------------------|
D|-----------------------------------------------------------------|
A|-0-----0-0-----0-0-4-0-----0-0-0---------------------------------|
D|---------------------------------4-----4-4-----4-4-4-4---4-4-2-4-|
B|-----------------------------------------------------------------|
   1 + 2 + 3 + 4 + 1 + 2 + 3 + 4 + 1 + 2 + 3 + 4 + 1 + 2 + 3 + 4 +

G|-----------------------------------------------------------------|
D|-----------------------------------------------------------------|
A|-2---2-2-2-2-2-2-2-2-2-2-2-2-2-2-3-3-3-3-3-3-3-3-3-3-3-3-3-3-3-3-|
D|-----------------------------------------------------------------|
B|-----------------------------------------------------------------|
   1 + 2 + 3 + 4 + 1 + 2 + 3 + 4 + 1 + 2 + 3 + 4 + 1 + 2 + 3 + 4 +

Interlude 4:12
G|-----------------------------------------------------------------|
D|---------------6-------------------------------6-----------------|
A|-2h4-4-4-4-4-4---4-4-4-4-4-4-4-4-2h4-4-4-4-4-4---4-4-4-4-4-4-4-4-|
D|-----------------------------------------------------------------|
B|-----------------------------------------------------------------|
   1 + 2 + 3 + 4 + 1 + 2 + 3 + 4 + 1 + 2 + 3 + 4 + 1 + 2 + 3 + 4 +

G|-----------------------------------------------------------------|
D|---------------4-----------------4-------------------------------|
A|-2h4-4-4-4-4-4---4-4-4-4-4-4-4-4-------7-----6-----4-----6---7---|
D|-----------------------------------------------------------------|
B|-----------------------------------------------------------------|
   1 + 2 + 3 + 4 + 1 + 2 + 3 + 4 + 1 + 2 + 3 + 4 + 1 + 2 + 3 + 4 +

4:24 Verse
G|---------------------------------------------------6-6-4---------|
D|---------------6-------------------------------6---------6-4-----|
A|-2h4-4-4-4-4-4---4-4-4-4-4-4-4-4-2h4-4-4-4-4-4---4-----------4-2-|
D|-----------------------------------------------------------------|
B|-----------------------------------------------------------------|
   1 + 2 + 3 + 4 + 1 + 2 + 3 + 4 + 1 + 2 + 3 + 4 + 1 + 2 + 3 + 4 +

G|-----------------------------------------------------------------|
D|---------------4-----------------4-------------------------------|
A|-2h4-4-4-4-4-4---4-4-4-4-4-4-4-4-------7-----6-----4-----6---7---|
D|-----------------------------------------------------------------|
B|-----------------------------------------------------------------|
   1 + 2 + 3 + 4 + 1 + 2 + 3 + 4 + 1 + 2 + 3 + 4 + 1 + 2 + 3 + 4 +

G|-----------------------------------------------------------------|
D|---------------6-------------------------------6-------------1---|
A|-2h4-4-4-4-4-4---4-4-4-4-4-4-4-4-2h4-4-4-4-4-4---4-4-4-4-2-4---2-|
D|-----------------------------------------------------------------|
B|-----------------------------------------------------------------|
   1 + 2 + 3 + 4 + 1 + 2 + 3 + 4 + 1 + 2 + 3 + 4 + 1 + 2 + 3 + 4 +

G|-----------------------------------------------------------------|
D|---------------4-----------------4-------------------------------|
A|-2h4-4-4-4-4-4---4-4-4-4-4-4-4-4-------7-----6-----4-----6---7---|
D|-----------------------------------------------------------------|
B|-----------------------------------------------------------------|
   1 + 2 + 3 + 4 + 1 + 2 + 3 + 4 + 1 + 2 + 3 + 4 + 1 + 2 + 3 + 4 +

Pre Chorus 4:45
G|-----------------------------------------------------------------|
D|-----------------------------------------------------------------|
A|---------------------------------4-5---2-4---0-2-----------------|
D|-0-----0-----0-----0-0---0---0---------------------6-7---6-7-6-2-|
B|-----------------------------------------------------------------|
   1 + 2 + 3 + 4 + 1 + 2 + 3 + 4 + 1 + 2 + 3 + 4 + 1 + 2 + 3 + 4 +

Chorus 4:51
G|-----------------------------------------------------------------|
D|-----------------------------------------------------6---7-6-----|
A|---------------------------------------------------7---7-----7-5-|
D|-4---4-4---4-4-----4-4---4-6-7-6-2---2-2---2-2-------------------|
B|-----------------------------------------------------------------|
   1 + 2 + 3 + 4 + 1 + 2 + 3 + 4 + 1 + 2 + 3 + 4 + 1 + 2 + 3 + 4 +

G|-----------------------------------------------------------------|
D|-----------------------------------------------------------------|
A|---------------------5---5-0-5-7---------------------------------|
D|-0---0-0---0-0-----0-------------2-2-2-2-----2-2-2-2-----2-2-2-2-|
B|-----------------------------------------------------------------|
   1 + 2 + 3 + 4 + 1 + 2 + 3 + 4 + 1 + 2 + 3 + 4 + 1 + 2 + 3 + 4 +

G|-----------------------------------------------------------------|
D|-----------------------------------------------------9---7-6-----|
A|-------------------------------------------------------------7---|
D|-4---4-4---4-4-----4-4---4-6-7-6-2---2-2---2-2-----2-------------|
B|-----------------------------------------------------------------|
   1 + 2 + 3 + 4 + 1 + 2 + 3 + 4 + 1 + 2 + 3 + 4 + 1 + 2 + 3 + 4 +

G|-----------------------------------------------------------------|
D|-----------------------------------------------------------------|
A|-------------------0-5-0-5-0-5-7---------------------------------|
D|-0---0-0---0-0-------------------2-2-2-2-----2-2-2-2-----2-2-0-2-|
B|-----------------------------------------------------------------|
   1 + 2 + 3 + 4 + 1 + 2 + 3 + 4 + 1 + 2 + 3 + 4 + 1 + 2 + 3 + 4 +

Outro 5:12
G|-----------------------------------------------------------------|
D|---------------------------------------------------------7-6-----|
A|-----------------------------------------------------7-------7-5-|
D|-4---4-4---4-4-----4-4---4-6-7-6-2---2-2---2-2-----2-------------|
B|-----------------------------------------------------------------|
   1 + 2 + 3 + 4 + 1 + 2 + 3 + 4 + 1 + 2 + 3 + 4 + 1 + 2 + 3 + 4 +

G|-----------------------------------------------------------------|
D|-----------------------------------------------------------------|
A|-------------------0-5-0-4-5-7-----------------------------------|
D|-0---0-0---0-0-----------------0-2---2-2---2-2---2-2-2---2-2-0-2-|
B|-----------------------------------------------------------------|
   1 + 2 + 3 + 4 + 1 + 2 + 3 + 4 + 1 + 2 + 3 + 4 + 1 + 2 + 3 + 4 +

G|-----------------------------------------------------------------|
D|---------------------------------------------------------6-7-6---|
A|-----------------------------------------------------7---------7-|
D|-4---4-4---4-4-----4-6-4-6-7-6-4-2---2-2---2-2-----2-------------|
B|-----------------------------------------------------------------|
   1 + 2 + 3 + 4 + 1 + 2 + 3 + 4 + 1 + 2 + 3 + 4 + 1 + 2 + 3 + 4 +

G|-----------------------------------------------------------------|
D|---------------------------------7-6---7-6---7-6---7-6---7-6-----|
A|---------------------5---5-4-5-7-----7-----7-----7-----7-----7---|
D|-0---0-0---0-0-----0---------------------------------------------|
B|-----------------------------------------------------------------|
   1 + 2 + 3 + 4 + 1 + 2 + 3 + 4 + 1 + 2 + 3 + 4 + 1 + 2 + 3 + 4 +

5:34
G|-----------------------------------------------------------------|
D|---------------------------------------------------------2-------|
A|-----------------------------------------------------2-------2---|
D|-4---4-4---4-4-----4-4---4-2-4-6-2---2-2---2-2-----2-------------|
B|-----------------------------------------------------------------|
   1 + 2 + 3 + 4 + 1 + 2 + 3 + 4 + 1 + 2 + 3 + 4 + 1 + 2 + 3 + 4 +

G|-----------------------------------------------------------------|
D|-------------------------------------------------7-6---7-6---7-6-|
A|-------------------0-5-0-5-0-4-5-7---7-7---7-7-7-----7-----7-----|
D|-0---0-0---0-0---------------------------------------------------|
B|-----------------------------------------------------------------|
   1 + 2 + 3 + 4 + 1 + 2 + 3 + 4 + 1 + 2 + 3 + 4 + 1 + 2 + 3 + 4 +

G|-----------------------------------------------------------------|
D|-----------------------------------------------------------------|
A|-----------------------------------------------------------------|
D|-4---4-4---4-4-----4-4---4-6-7-6-2---2-2---2-2-----2-2---2-4-2---|
B|-----------------------------------------------------------------|
   1 + 2 + 3 + 4 + 1 + 2 + 3 + 4 + 1 + 2 + 3 + 4 + 1 + 2 + 3 + 4 +

G|-----------------------------------------------------------------|
D|-----------------------------------------------------------------|
A|---------------------------------------------------0---0-2-2-4---|
D|-0---0-0---0-0-----0-0---0-0-0-0-2---2-4---4-6---6---------------|
B|-----------------------------------------------------------------|
   1 + 2 + 3 + 4 + 1 + 2 + 3 + 4 + 1 + 2 + 3 + 4 + 1 + 2 + 3 + 4 +

5:55
G|-----------------------------------------------------------------|
D|-----------------------------------------------------2---2-------|
A|-----------------------------------------------------------2-----|
D|-4---4-4---4-4-----4-4---4-6-4---2---2-2---2-2-----2---2-----2---|
B|-----------------------------------------------------------------|
   1 + 2 + 3 + 4 + 1 + 2 + 3 + 4 + 1 + 2 + 3 + 4 + 1 + 2 + 3 + 4 +

G|---------------------------------------------6-----9-----------6-|
D|---------------------------------7-6---9-7-6---7-6---7-6-7-6-7---|
A|-------------------0-5-0-5-7-5-0-----7---------------------------|
D|-0---0-0---0-0---------------------------------------------------|
B|-----------------------------------------------------------------|
   1 + 2 + 3 + 4 + 1 + 2 + 3 + 4 + 1 + 2 + 3 + 4 + 1 + 2 + 3 + 4 +

G|-----------------------------------------------------------------|
D|-----------------------------------------------------------------|
A|-----------------------------------------------------------------|
D|-4---4-4---4-4-----4-4---4-6-7-6-2---2-2---2-2-----2-2---2-2-2-2-|
B|-----------------------------------------------------------------|
   1 + 2 + 3 + 4 + 1 + 2 + 3 + 4 + 1 + 2 + 3 + 4 + 1 + 2 + 3 + 4 +

G|-----------------------------------------------------------------|
D|-----------------------------------------------------------------|
A|-----------------------------------------------------------------|
D|-0---0-0---0-0-----0-0---0-0-0-0-2---2-2---2-2-----2-2---2-2-2-2-|
B|-----------------------------------------------------------------|
   1 + 2 + 3 + 4 + 1 + 2 + 3 + 4 + 1 + 2 + 3 + 4 + 1 + 2 + 3 + 4 +
Tabbed by Dave Vucko

            
            
Suggest correction
Creating personal tab
Creating personal tab
You can edit any tab online and save it as your Personal.

You can edit, replace or remove any tab part or add personal notes – all changes will be seen only by you.

Personal tabs can be accessed anytime from any device, even offline.
Learn more »
comments
print report bad tab
5 comments total. Showing first comments.
0 reply
espguitars13 10 Dec 17, 2013 02:46 PM

the tuning isn't drop d, its in drop C# so raise everything by one half step

0 reply
JackMills 6,147 Jan 07, 2014 04:27 AM

Dude, you can't really complain, as he's just given you like 50 pages of accurate tab with timings and everything.

Thanks for correcting it, I always thought this bit sounded wrong before.
G|-----------------------------------------------------------------|
D|-----------------------------------------------------------------|
A|---------------------------------4-5---2-4---0-2-----------------|
D|-0-----0-----0-----0-0---0---0---------------------6-7---6-7-6-2-|
B|-----------------------------------------------------------------|
1 + 2 + 3 + 4 + 1 + 2 + 3 + 4 + 1 + 2 + 3 + 4 + 1 + 2 + 3 + 4 +

Turns out I'm not completely mad xD

0 reply
OgDeath_Jr 10 Jun 04, 2017 07:12 PM

can you please make one for a 4 string bass

guest
You may want to rate the tab now too:
select rating
Wanna post a correction for this tab? Suggest correction