Oops, an error
Loading. Please wait.

Coming Home Tab

version 1
version 1

Whole song

Interactive

71,688 views 192 this week
8 commentsread comments
1 2 3 4 5
excellent!
x 14
add to favorites
launch autoscroll
font size
0
reset
how to read this tab
guitar tuner
Autoscroll
slow
fast
+/-
esc
set tempo
stop
Help us to improve Ultimate-Guitar.com Take our survey!
×
Author
Difficulty
Tuning
advanced
C# G# C# F# A# D#
“Coming Home” has to be my favorite song from their newest album “Hail to the 
King”. It packs so much emotion and spirit into six and a half minutes. Also, that 
guitar solo is a masterpiece. Synyster Gates will always be an idol guitarist. Enjoy!

Username: dkm817 (same on X box live)
Youtube Cover: http://www.youtube.com/watch?v=xbI_AkPwYgo
Email: guitardrums@rockfan.com

Guitar 1 Rhythmic (C# G# C# F# A# D#)
Guitar 2 Lead     (C# G# C# F# A# D#)
Guitar 3 Backup   (C# G# C# F# A# D#)

NOTE: This was exported off of guitar pro.

Guitar 1

   Starts at (00:32) 
                                                 PM PM PM PM PM     
                                             Q    E  E  E  E  E  E   
D#|-------|-------|-------|-------|-------|-------------------------|
A#|-------|-------|-------|-------|-------|-------------------------|
F#|-------|-------|-------|-------|-------|-------------------------|
C#|-------|-------|-------|-------|-------|--7-------------------8--|
G#|-------|-------|-------|-------|-------|--5----5--5--5--5--5--5--|
C#|-------|-------|-------|-------|-------|-------------------------|


          PM PM PM PM PM PM         PM PM PM PM PM            PM PM PM PM PM PM  
     Q    E  E  E  E  E  E     Q    E  E  E  E  E  E     Q    E  E  E  E  E  E   
D#|-------------------------|-------------------------|-------------------------|
A#|-------------------------|-------------------------|-------------------------|
F#|-------------------------|-------------------------|-------------------------|
C#|--L----------------------|--5-------------------7--|--L----------------------|
G#|--L----5--5--5--5--5--5--|--5----5--5--5--5--5--5--|--L----5--5--5--5--5--5--|
C#|-------------------------|-------------------------|-------------------------|


          PM PM PM PM PM            PM PM PM PM PM PM       PM PM    PM PM    PM  
     Q    E  E  E  E  E  E     Q    E  E  E  E  E  E     E  E  E  E  E  E  E  E   
D#|-------------------------|-------------------------|--------------------------|
A#|-------------------------|-------------------------|--------------------------|
F#|-------------------------|-------------------------|--------------------------|
C#|--7-------------------8--|--L----------------------|--5--------3--------2-----|
G#|--5----5--5--5--5--5--5--|--L----5--5--5--5--5--5--|--3--3--3--3--3--3--3--3--|
C#|-------------------------|-------------------------|--------------------------|


     PM    PM PM    PM    PM         PM PM PM PM PM            PM PM PM PM PM PM  
     E  E  E  E  E  E  E  E     Q    E  E  E  E  E  E     Q    E  E  E  E  E  E   
D#|--------------------------|-------------------------|-------------------------|
A#|--------------------------|-------------------------|-------------------------|
F#|--------------------------|-------------------------|-------------------------|
C#|-----0--------2-----3-----|--7-------------------8--|--L----------------------|
G#|--3--3--3--3--3--3--3--3--|--5----5--5--5--5--5--5--|--L----5--5--5--5--5--5--|
C#|--------------------------|-------------------------|-------------------------|


          PM PM PM PM PM            PM PM PM PM PM PM         PM PM PM PM PM     
     Q    E  E  E  E  E  E     Q    E  E  E  E  E  E     Q    E  E  E  E  E  E   
D#|-------------------------|-------------------------|-------------------------|
A#|-------------------------|-------------------------|-------------------------|
F#|-------------------------|-------------------------|-------------------------|
C#|--5-------------------7--|--L----------------------|--7-------------------8--|
G#|--5----5--5--5--5--5--5--|--L----5--5--5--5--5--5--|--5----5--5--5--5--5--5--|
C#|-------------------------|-------------------------|-------------------------|


          PM PM PM PM PM PM                                               
     Q    E  E  E  E  E  E     Q.     Q.     Q       E  Q.     Q    Q     
D#|-------------------------|---------------------|----------------------|
A#|-------------------------|---------------------|----------------------|
F#|-------------------------|---------------------|----------------------|
C#|--L----------------------|--5------3------2----|--L--0------2----3----|
G#|--L----5--5--5--5--5--5--|--3------3------3----|--L--3------3----3----|
C#|-------------------------|---------------------|----------------------|


           PM PM PM PM PM             PM PM PM PM PM PM  
     E  E  E  E  E  E  E  E     E  E  E  E  E  E  E  E   
D#|--------------------------|--------------------------|
A#|--------------------------|--------------------------|
F#|--------------------------|--------------------------|
C#|--7--7-----------------8--|--8--8--------------------|
G#|--5--5--5--5--5--5--5--5--|--5--5--5--5--5--5--5--5--|
C#|--------------------------|--------------------------|


           PM PM PM PM PM             PM PM PM PM PM PM  
     E  E  E  E  E  E  E  E     E  E  E  E  E  E  E  E   
D#|--------------------------|--------------------------|
A#|--------------------------|--------------------------|
F#|--------------------------|--------------------------|
C#|--5--5-----------------7--|--7--7--------------------|
G#|--5--5--5--5--5--5--5--5--|--5--5--5--5--5--5--5--5--|
C#|--------------------------|--------------------------|


           PM PM PM PM PM             PM PM PM PM PM PM                        
     E  E  E  E  E  E  E  E     E  E  E  E  E  E  E  E     Q.     Q.     Q     
D#|--------------------------|--------------------------|---------------------|
A#|--------------------------|--------------------------|---------------------|
F#|--------------------------|--------------------------|---------------------|
C#|--7--7-----------------8--|--8--8--------------------|--5------3------2----|
G#|--5--5--5--5--5--5--5--5--|--5--5--5--5--5--5--5--5--|--3------3------3----|
C#|--------------------------|--------------------------|---------------------|


                                 PM PM PM PM PM             PM PM PM PM PM PM  
     E  Q.     Q    Q       Q    E  E  E  E  E  E     E  E  E  E  E  E  E  E   
D#|----------------------|-------------------------|--------------------------|
A#|----------------------|-------------------------|--------------------------|
F#|----------------------|-------------------------|--------------------------|
C#|--L--0------2----3----|--7-------------------8--|--L--8--------------------|
G#|--L--3------3----3----|--5----5--5--5--5--5--5--|--L--5--5--5--5--5--5--5--|
C#|----------------------|-------------------------|--------------------------|


          PM PM PM PM PM             PM PM PM PM PM PM         PM PM PM PM PM     
     Q    E  E  E  E  E  E     E  E  E  E  E  E  E  E     Q    E  E  E  E  E  E   
D#|-------------------------|--------------------------|-------------------------|
A#|-------------------------|--------------------------|-------------------------|
F#|-------------------------|--------------------------|-------------------------|
C#|--5-------------------7--|--L--7--------------------|--7-------------------8--|
G#|--5----5--5--5--5--5--5--|--L--5--5--5--5--5--5--5--|--5----5--5--5--5--5--5--|
C#|-------------------------|--------------------------|-------------------------|


           PM PM PM PM PM PM                                               
     E  E  E  E  E  E  E  E     Q.     Q.     Q       E  Q.     Q    Q     
D#|--------------------------|---------------------|----------------------|
A#|--------------------------|---------------------|----------------------|
F#|--------------------------|---------------------|----------------------|
C#|--L--8--------------------|--5------3------2----|--L--0------2----3----|
G#|--L--5--5--5--5--5--5--5--|--3------3------3----|--L--3------3----3----|
C#|--------------------------|---------------------|----------------------|


          PM PM PM PM PM             PM PM PM PM PM PM         PM PM PM PM PM     
     Q    E  E  E  E  E  E     E  E  E  E  E  E  E  E     Q    E  E  E  E  E  E   
D#|-------------------------|--------------------------|-------------------------|
A#|-------------------------|--------------------------|-------------------------|
F#|-------------------------|--------------------------|-------------------------|
C#|--7-------------------8--|--L--8--------------------|--5-------------------7--|
G#|--5----5--5--5--5--5--5--|--L--5--5--5--5--5--5--5--|--5----5--5--5--5--5--5--|
C#|-------------------------|--------------------------|-------------------------|


           PM PM PM PM PM PM         PM PM PM PM PM             PM PM PM PM PM PM  
     E  E  E  E  E  E  E  E     Q    E  E  E  E  E  E     E  E  E  E  E  E  E  E   
D#|--------------------------|-------------------------|--------------------------|
A#|--------------------------|-------------------------|--------------------------|
F#|--------------------------|-------------------------|--------------------------|
C#|--L--7--------------------|--7-------------------8--|--L--8--------------------|
G#|--L--5--5--5--5--5--5--5--|--5----5--5--5--5--5--5--|--L--5--5--5--5--5--5--5--|
C#|--------------------------|-------------------------|--------------------------|


     Q.     Q.     Q       E  Q.     Q    Q       H.           Q     
D#|---------------------|----------------------|--------------------|
A#|---------------------|----------------------|--------------------|
F#|---------------------|----------------------|--------------------|
C#|--5------3------2----|--L--0------2----3----|--1------------1----|
G#|--3------3------3----|--L--3------3----3----|--1------------1----|
C#|---------------------|----------------------|--1------------1----|


     Q    H        Q       E  E  E  E  E  E  E  E     E  E  E  E  E  E  E  E   
D#|---------------------|--------------------------|--------------------------|
A#|---------------------|--------------------------|--------------------------|
F#|---------------------|--------------------------|--------------------------|
C#|--L----1--------L----|--------------------------|--------------------------|
G#|--L----1--------L----|--5--6-----3--5-----1--3--|-----0--1-----0--1--0-----|
C#|--L----1--------L----|--------------------------|-----------------------3--|


     E  E  E  E  E  E  E  E     E  E  E  E  E  E  E  E   
D#|--------------------------|--------------------------|
A#|--------------------------|--------------------------|
F#|--------------------------|--------------------------|
C#|--5--5--5--7--7--7--8--8--|--8--8--5--5--7--7--8--8--|
G#|--5--5--5--5--5--5--5--5--|--5--5--5--5--5--5--5--5--|
C#|--5--5--5--5--5--5--5--5--|--5--5--5--5--5--5--5--5--|


     E  E  E  E  E  E  E  E     E  E  E  E  E  E  E  E   
D#|--------------------------|--------------------------|
A#|--------------------------|--------------------------|
F#|--3--3--3-----------------|--------------------------|
C#|--x--x--x--7--7--7--3--3--|--3--3--3--3--5--5--7--7--|
G#|--3--3--3--3--3--3--3--3--|--3--3--3--3--3--3--3--3--|
C#|--3--3--3--3--3--3--3--3--|--3--3--3--3--3--3--3--3--|


     E  E  E  E  E  E  E  E     E  E  E  E  E  E  E  E   
D#|--------------------------|--------------------------|
A#|--------------------------|--------------------------|
F#|--3--3--3--2--2--2--------|--------------------------|
C#|--x--x--x--x--x--x--3--3--|--3--3--3--3--0--0--3--3--|
G#|--1--1--1--1--1--1--1--1--|--1--1--1--1--1--1--1--1--|
C#|--1--1--1--1--1--1--1--1--|--1--1--1--1--1--1--1--1--|


     E  E  E  E  E  E  E  E     E  E  E  E  E  E  E  E   
D#|--------------------------|--------------------------|
A#|--------------------------|--------------------------|
F#|--------------------------|--------------------------|
C#|--3--3--3--3--------3--3--|--3--3--------3--3--3--3--|
G#|--3--3--3--3--------3--3--|--3--3--------3--3--3--3--|
C#|--3--3--3--3--------3--3--|--3--3--------3--3--3--3--|


     E  E  E  E  E  E  E  E     E  E  E  E  E  E  E  E   
D#|--------------------------|--------------------------|
A#|--------------------------|--------------------------|
F#|--------------------------|--------------------------|
C#|--5--5--5--7--7--7--8--8--|--8--8--5--5--7--7--8--8--|
G#|--5--5--5--5--5--5--5--5--|--5--5--5--5--5--5--5--5--|
C#|--5--5--5--5--5--5--5--5--|--5--5--5--5--5--5--5--5--|


     E  E  E  E  E  E  E  E     E  E  E  E  E  E  E  E   
D#|--------------------------|--------------------------|
A#|--------------------------|--------------------------|
F#|--3--3--3-----------------|--------------------------|
C#|--x--x--x--7--7--7--3--3--|--3--3--3--3--5--5--7--7--|
G#|--3--3--3--3--3--3--3--3--|--3--3--3--3--3--3--3--3--|
C#|--3--3--3--3--3--3--3--3--|--3--3--3--3--3--3--3--3--|


     E  E  E  E  E  E  E  E     E  E  E  E  E  E  E  E   
D#|--------------------------|--------------------------|
A#|--------------------------|--------------------------|
F#|--3--3--3--2--2--2--------|--------------------------|
C#|--x--x--x--x--x--x--3--3--|--3--3--3--3--0--0--3--3--|
G#|--1--1--1--1--1--1--1--1--|--1--1--1--1--1--1--1--1--|
C#|--1--1--1--1--1--1--1--1--|--1--1--1--1--1--1--1--1--|


                                                                PM PM PM PM PM     
     E  E  E  E  E  E  E  E     E  E  E  E  E  E  E  E     Q    E  E  E  E  E  E   
D#|--------------------------|--------------------------|-------------------------|
A#|--------------------------|--------------------------|-------------------------|
F#|--------------------------|--------------------------|-------------------------|
C#|--3--3--3--3--------3--3--|--3--3--------3--3--3--3--|-------------------------|
G#|--3--3--3--3--------3--3--|--3--3--------3--3--3--3--|--5-------------------6--|
C#|--3--3--3--3--------3--3--|--3--3--------3--3--3--3--|--5----5--5--5--5--5--5--|


           PM PM PM PM PM PM         PM PM PM PM PM             PM PM PM PM PM PM  
     E  E  E  E  E  E  E  E     Q    E  E  E  E  E  E     E  E  E  E  E  E  E  E   
D#|--------------------------|-------------------------|--------------------------|
A#|--------------------------|-------------------------|--------------------------|
F#|--------------------------|-------------------------|--------------------------|
C#|--------------------------|-------------------------|--------------------------|
G#|--L--6--------------------|--3-------------------5--|--L--5--------------------|
C#|--L--5--5--5--5--5--5--5--|--5----5--5--5--5--5--5--|--L--5--5--5--5--5--5--5--|


          PM PM PM PM PM             PM PM PM PM PM PM         PM PM PM PM PM     
     Q    E  E  E  E  E  E     E  E  E  E  E  E  E  E     Q    E  E  E  E  E  E   
D#|-------------------------|--------------------------|-------------------------|
A#|-------------------------|--------------------------|-------------------------|
F#|-------------------------|--------------------------|-------------------------|
C#|--7-------------------8--|--L--8--------------------|--5-------------------7--|
G#|--5----5--5--5--5--5--5--|--L--5--5--5--5--5--5--5--|--5----5--5--5--5--5--5--|
C#|-------------------------|--------------------------|-------------------------|


           PM PM PM PM PM PM         PM PM PM PM PM             PM PM PM PM PM PM  
     E  E  E  E  E  E  E  E     Q    E  E  E  E  E  E     E  E  E  E  E  E  E  E   
D#|--------------------------|-------------------------|--------------------------|
A#|--------------------------|-------------------------|--------------------------|
F#|--------------------------|-------------------------|--------------------------|
C#|--L--7--------------------|--7-------------------8--|--L--8--------------------|
G#|--L--5--5--5--5--5--5--5--|--5----5--5--5--5--5--5--|--L--5--5--5--5--5--5--5--|
C#|--------------------------|-------------------------|--------------------------|


                                                       PM PM PM PM PM     
     Q.     Q.     Q       E  Q.     Q    Q       Q    E  E  E  E  E  E   
D#|---------------------|----------------------|-------------------------|
A#|---------------------|----------------------|-------------------------|
F#|---------------------|----------------------|-------------------------|
C#|--5------3------2----|--L--0------2----3----|--7-------------------8--|
G#|--3------3------3----|--L--3------3----3----|--5----5--5--5--5--5--5--|
C#|---------------------|----------------------|-------------------------|


           PM PM PM PM PM PM         PM PM PM PM PM             PM PM PM PM PM PM  
     E  E  E  E  E  E  E  E     Q    E  E  E  E  E  E     E  E  E  E  E  E  E  E   
D#|--------------------------|-------------------------|--------------------------|
A#|--------------------------|-------------------------|--------------------------|
F#|--------------------------|-------------------------|--------------------------|
C#|--L--8--------------------|--5-------------------7--|--L--7--------------------|
G#|--L--5--5--5--5--5--5--5--|--5----5--5--5--5--5--5--|--L--5--5--5--5--5--5--5--|
C#|--------------------------|-------------------------|--------------------------|


          PM PM PM PM PM             PM PM PM PM PM PM                        
     Q    E  E  E  E  E  E     E  E  E  E  E  E  E  E     Q.     Q.     Q     
D#|-------------------------|--------------------------|---------------------|
A#|-------------------------|--------------------------|---------------------|
F#|-------------------------|--------------------------|---------------------|
C#|--7-------------------8--|--L--8--------------------|--5------3------2----|
G#|--5----5--5--5--5--5--5--|--L--5--5--5--5--5--5--5--|--3------3------3----|
C#|-------------------------|--------------------------|---------------------|


     E  Q.     Q    Q       H.           Q       Q    H        Q     
D#|----------------------|--------------------|---------------------|
A#|----------------------|--------------------|---------------------|
F#|----------------------|--------------------|---------------------|
C#|--L--0------2----3----|--1------------1----|--L----1--------L----|
G#|--L--3------3----3----|--1------------1----|--L----1--------L----|
C#|----------------------|--1------------1----|--L----1--------L----|


     E  E  E  E  E  E  E  E     E  E  E  E  E  E  E  E   
D#|--------------------------|--------------------------|
A#|--------------------------|--------------------------|
F#|--------------------------|--------------------------|
C#|--------------------------|--------------------------|
G#|--5--6-----3--5-----1--3--|-----0--1-----0--1--0-----|
C#|--------------------------|-----------------------3--|


     E  E  E  E  E  E  E  E     E  E  E  E  E  E  E  E   
D#|--------------------------|--------------------------|
A#|--------------------------|--------------------------|
F#|--------------------------|--------------------------|
C#|--5--5--5--7--7--7--8--8--|--8--8--5--5--7--7--8--8--|
G#|--5--5--5--5--5--5--5--5--|--5--5--5--5--5--5--5--5--|
C#|--5--5--5--5--5--5--5--5--|--5--5--5--5--5--5--5--5--|


     E  E  E  E  E  E  E  E     E  E  E  E  E  E  E  E   
D#|--------------------------|--------------------------|
A#|--------------------------|--------------------------|
F#|--3--3--3-----------------|--------------------------|
C#|--x--x--x--7--7--7--3--3--|--3--3--3--3--5--5--7--7--|
G#|--3--3--3--3--3--3--3--3--|--3--3--3--3--3--3--3--3--|
C#|--3--3--3--3--3--3--3--3--|--3--3--3--3--3--3--3--3--|


     E  E  E  E  E  E  E  E     E  E  E  E  E  E  E  E   
D#|--------------------------|--------------------------|
A#|--------------------------|--------------------------|
F#|--3--3--3--2--2--2--------|--------------------------|
C#|--x--x--x--x--x--x--3--3--|--3--3--3--3--0--0--3--3--|
G#|--1--1--1--1--1--1--1--1--|--1--1--1--1--1--1--1--1--|
C#|--1--1--1--1--1--1--1--1--|--1--1--1--1--1--1--1--1--|


     E  E  E  E  E  E  E  E     E  E  E  E  E  E  E  E   
D#|--------------------------|--------------------------|
A#|--------------------------|--------------------------|
F#|--------------------------|--------------------------|
C#|--3--3--3--3--------3--3--|--3--3--------3--3--3--3--|
G#|--3--3--3--3--------3--3--|--3--3--------3--3--3--3--|
C#|--3--3--3--3--------3--3--|--3--3--------3--3--3--3--|


     E  E  E  E  E  E  E  E     E  E  E  E  E  E  E  E   
D#|--------------------------|--------------------------|
A#|--------------------------|--------------------------|
F#|--------------------------|--------------------------|
C#|--5--5--5--7--7--7--8--8--|--8--8--5--5--7--7--8--8--|
G#|--5--5--5--5--5--5--5--5--|--5--5--5--5--5--5--5--5--|
C#|--5--5--5--5--5--5--5--5--|--5--5--5--5--5--5--5--5--|


     E  E  E  E  E  E  E  E     E  E  E  E  E  E  E  E   
D#|--------------------------|--------------------------|
A#|--------------------------|--------------------------|
F#|--3--3--3-----------------|--------------------------|
C#|--x--x--x--7--7--7--3--3--|--3--3--3--3--5--5--7--7--|
G#|--3--3--3--3--3--3--3--3--|--3--3--3--3--3--3--3--3--|
C#|--3--3--3--3--3--3--3--3--|--3--3--3--3--3--3--3--3--|


     E  E  E  E  E  E  E  E     E  E  E  E  E  E  E  E   
D#|--------------------------|--------------------------|
A#|--------------------------|--------------------------|
F#|--3--3--3--2--2--2--------|--------------------------|
C#|--x--x--x--x--x--x--3--3--|--3--3--3--3--0--0--3--3--|
G#|--1--1--1--1--1--1--1--1--|--1--1--1--1--1--1--1--1--|
C#|--1--1--1--1--1--1--1--1--|--1--1--1--1--1--1--1--1--|


     E  E  E  E  E  E  E  E     E  E  E  E  E  E  E  E     E  E  E  E  E  E  Q     
D#|--------------------------|--------------------------|-------------------------|
A#|--------------------------|--------------------------|-------------------------|
F#|--------------------------|--------------------------|-------------------------|
C#|--3--3--3--3--------3--3--|--3--3--------3--3--3--3--|--5--------5--------5----|
G#|--3--3--3--3--------3--3--|--3--3--------3--3--3--3--|--5--------5--------5----|
C#|--3--3--3--3--------3--3--|--3--3--------3--3--3--3--|--5--------5--------5----|


     W                   E  E  E  E  E  E  Q       W                 
D#|-------------------|-------------------------|-------------------|
A#|-------------------|-------------------------|-------------------|
F#|-------------------|-------------------------|-------------------|
C#|--L----------------|--3--------3--------3----|--L----------------|
G#|--L----------------|--3--------3--------3----|--L----------------|
C#|--L----------------|--3--------3--------3----|--L----------------|


                                                        PM PM PM PM PM PM  
     E  E  E  E  E  E  Q       W                   Q    E  E  E  E  E  E   
D#|-------------------------|-------------------|-------------------------|
A#|-------------------------|-------------------|-------------------------|
F#|-------------------------|-------------------|-------------------------|
C#|--1--------1--------1----|--L----------------|--3----3--3--3--3--3--3--|
G#|--1--------1--------1----|--L----------------|--3----3--3--3--3--3--3--|
C#|--1--------1--------1----|--L----------------|--3----3--3--3--3--3--3--|


     PM PM PM                        PM      PM         PM         PM PM PM PM  
     E  E  E  E  E  E  E  E     Q    E  Q    E  Q       E  Q    E  E  E  E  E   
D#|--------------------------|-----------------------|-------------------------|
A#|--------------------------|-----------------------|-------------------------|
F#|--------------------------|-----------------------|-------------------------|
C#|--3--3--3--3--3--3--3--3--|--7-------8-------5----|-----7----L--0--0--0--0--|
G#|--3--3--3--3--3--3--3--3--|--5----5--5----5--5----|--5--5----L--0--0--0--0--|
C#|--3--3--3--3--3--3--3--3--|-----------------------|-------------0--0--0--0--|


          PM      PM         PM         PM PM PM PM         PM      PM       
     Q    E  Q    E  Q       E  Q    E  E  E  E  E     Q    E  Q    E  Q     
D#|-----------------------|-------------------------|-----------------------|
A#|-----------------------|-------------------------|-----------------------|
F#|-----------------------|-------------------------|-----------------------|
C#|--7-------8-------5----|-----7----L--0--0--0--0--|--7-------8-------5----|
G#|--5----5--5----5--5----|--5--5----L--0--0--0--0--|--5----5--5----5--5----|
C#|-----------------------|-------------0--0--0--0--|-----------------------|


     PM         PM PM PM PM                                               
     E  Q    E  E  E  E  E     Q.     Q.     Q       E  Q.     Q    Q     
D#|-------------------------|---------------------|----------------------|
A#|-------------------------|---------------------|----------------------|
F#|-------------------------|---------------------|----------------------|
C#|-----7----L--0--0--0--0--|--5------3------2----|--L--0------2----3----|
G#|--5--5----L--0--0--0--0--|--3------3------3----|--L--3------3----3----|
C#|-------------0--0--0--0--|---------------------|----------------------|


          PM      PM         PM         PM PM PM PM         PM      PM       
     Q    E  Q    E  Q       E  Q    E  E  E  E  E     Q    E  Q    E  Q     
D#|-----------------------|-------------------------|-----------------------|
A#|-----------------------|-------------------------|-----------------------|
F#|-----------------------|-------------------------|-----------------------|
C#|--7-------8-------5----|-----7----L--0--0--0--0--|--7-------8-------5----|
G#|--5----5--5----5--5----|--5--5----L--0--0--0--0--|--5----5--5----5--5----|
C#|-----------------------|-------------0--0--0--0--|-----------------------|


     PM         PM PM PM PM         PM      PM         PM         PM PM PM PM  
     E  Q    E  E  E  E  E     Q    E  Q    E  Q       E  Q    E  E  E  E  E   
D#|-------------------------|-----------------------|-------------------------|
A#|-------------------------|-----------------------|-------------------------|
F#|-------------------------|-----------------------|-------------------------|
C#|-----7----L--0--0--0--0--|--7-------8-------5----|-----7----L--0--0--0--0--|
G#|--5--5----L--0--0--0--0--|--5----5--5----5--5----|--5--5----L--0--0--0--0--|
C#|-------------0--0--0--0--|-----------------------|-------------0--0--0--0--|


     Q.     Q.     Q       E  Q.     Q    Q       W                 
D#|---------------------|----------------------|-------------------|
A#|---------------------|----------------------|-------------------|
F#|---------------------|----------------------|--3----------------|
C#|--5------3------2----|--L--0------2----3----|--3----------------|
G#|--3------3------3----|--L--3------3----3----|--1----------------|
C#|---------------------|----------------------|-------------------|


     W                   W                   W                 
D#|-------------------|-------------------|-------------------|
A#|-------------------|-------------------|-------------------|
F#|--L----------------|--5----------------|--L----------------|
C#|--L----------------|--5----------------|--L----------------|
G#|--L----------------|--3----------------|--L----------------|
C#|-------------------|-------------------|-------------------|


          PM PM PM PM PM PM    PM PM PM PM                     PM PM PM PM PM PM  
     Q    E  E  E  E  E  E     E  E  E  E  E  E  E  E     Q    E  E  E  E  E  E   
D#|-------------------------|--------------------------|-------------------------|
A#|-------------------------|--------------------------|-------------------------|
F#|-------------------------|--------------------------|-------------------------|
C#|--0----0--0--0--0--0--0--|--0--0--0--0--3--5--3--0--|--0----0--0--0--0--0--0--|
G#|--0----0--0--0--0--0--0--|--0--0--0--0--3--5--3--0--|--0----0--0--0--0--0--0--|
C#|--0----0--0--0--0--0--0--|--0--0--0--0--3--5--3--0--|--0----0--0--0--0--0--0--|


     PM PM PM PM                                                      
     E  E  E  E  E  E  E  E     W                   W                 
D#|--------------------------|-------------------|-------------------|
A#|--------------------------|-------------------|-------------------|
F#|--------------------------|--3----------------|--L----------------|
C#|--0--0--0--0--3--5--3--0--|--3----------------|--L----------------|
G#|--0--0--0--0--3--5--3--0--|--1----------------|--L----------------|
C#|--0--0--0--0--3--5--3--0--|-------------------|-------------------|


                                                  PM PM PM PM PM PM  
     W                   W                   Q    E  E  E  E  E  E   
D#|-------------------|-------------------|-------------------------|
A#|-------------------|-------------------|-------------------------|
F#|--5----------------|--L----------------|-------------------------|
C#|--5----------------|--L----------------|--0----0--0--0--0--0--0--|
G#|--3----------------|--L----------------|--0----0--0--0--0--0--0--|
C#|-------------------|-------------------|--0----0--0--0--0--0--0--|


     PM PM PM PM                     PM PM PM PM PM PM    PM PM PM PM              
     E  E  E  E  E  E  E  E     Q    E  E  E  E  E  E     E  E  E  E  E  E  E  E   
D#|--------------------------|-------------------------|--------------------------|
A#|--------------------------|-------------------------|--------------------------|
F#|--------------------------|-------------------------|--------------------------|
C#|--0--0--0--0--3--5--3--0--|--0----0--0--0--0--0--0--|--0--0--0--0--3--5--3--0--|
G#|--0--0--0--0--3--5--3--0--|--0----0--0--0--0--0--0--|--0--0--0--0--3--5--3--0--|
C#|--0--0--0--0--3--5--3--0--|--0----0--0--0--0--0--0--|--0--0--0--0--3--5--3--0--|


     Q    E  Q    E  Q       E  E  Q    E  E  E  E     Q    E  Q    E  Q     
D#|-----------------------|-------------------------|-----------------------|
A#|-----------------------|-------------------------|-----------------------|
F#|--3----3--3----3--3----|--L--3--3----3--3--3--3--|--5----5--5----5--5----|
C#|--3----3--3----3--3----|--L--3--3----3--3--3--3--|--5----5--5----5--5----|
G#|--1----1--1----1--1----|--L--1--1----1--1--1--1--|--3----3--3----3--3----|
C#|-----------------------|-------------------------|-----------------------|


     E  E  Q    E  E  E  E     Q    E  Q    E  Q       E  E  Q    E  E  E  E   
D#|-------------------------|-----------------------|-------------------------|
A#|-------------------------|-----------------------|-------------------------|
F#|--L--5--5----5--5--5--5--|--7----7--7----7--7----|--L--7--7----7--7--7--7--|
C#|--L--5--5----5--5--5--5--|--7----7--7----7--7----|--L--7--7----7--7--7--7--|
G#|--L--3--3----3--3--3--3--|--5----5--5----5--5----|--L--5--5----5--5--5--5--|
C#|-------------------------|-----------------------|-------------------------|


     Q    E  Q    E  Q       E  E  Q    E  E  E  E     Q    E  Q    E  Q     
D#|-----------------------|-------------------------|-----------------------|
A#|-----------------------|-------------------------|-----------------------|
F#|--5----5--5----5--5----|--L--5--5----5--5--5--5--|--3----3--3----3--3----|
C#|--5----5--5----5--5----|--L--5--5----5--5--5--5--|--3----3--3----3--3----|
G#|--3----3--3----3--3----|--L--3--3----3--3--3--3--|--1----1--1----1--1----|
C#|-----------------------|-------------------------|-----------------------|


     E  E  Q    E  E  E  E     Q    E  Q    E  Q       E  E  Q    E  E  E  E   
D#|-------------------------|-----------------------|-------------------------|
A#|-------------------------|-----------------------|-------------------------|
F#|--L--3--3----3--3--3--3--|--5----5--5----5--5----|--L--5--5----5--5--5--5--|
C#|--L--3--3----3--3--3--3--|--5----5--5----5--5----|--L--5--5----5--5--5--5--|
G#|--L--1--1----1--1--1--1--|--3----3--3----3--3----|--L--3--3----3--3--3--3--|
C#|-------------------------|-----------------------|-------------------------|


     Q    E  Q    E  Q       E  E  Q    E  E  E  E     Q    E  Q    E  Q     
D#|-----------------------|-------------------------|-----------------------|
A#|-----------------------|-------------------------|-----------------------|
F#|--7----7--7----7--7----|--L--7--7----7--7--7--7--|--5----5--5----5--5----|
C#|--7----7--7----7--7----|--L--7--7----7--7--7--7--|--5----5--5----5--5----|
G#|--5----5--5----5--5----|--L--5--5----5--5--5--5--|--3----3--3----3--3----|
C#|-----------------------|-------------------------|-----------------------|


     E  E  Q    E  E  E  E     Q.     E  E  E  Q       E  E  E  E  Q    E  E   
D#|-------------------------|-----------------------|-------------------------|
A#|-------------------------|-----------------------|-------------------------|
F#|--L--5--5----5--5--5--5--|--3------3--3--3--3----|--L--3--3--3--3----3--3--|
C#|--L--5--5----5--5--5--5--|--3------3--3--3--3----|--L--3--3--3--3----3--3--|
G#|--L--3--3----3--3--3--3--|--1------1--1--1--1----|-----1--1--1--1----1--1--|
C#|-------------------------|-----------------------|-------------------------|


     Q.     E  E  E  Q       E  E  E  E  Q    E  E     E  E  E  E  E  E  E  E   
D#|-----------------------|-------------------------|--------------------------|
A#|-----------------------|-------------------------|--------------------------|
F#|-----------------------|-------------------------|--5--5--5--5--5--5--5--5--|
C#|--5------5--5--5--5----|--L--5--5--5--5----5--5--|--5--5--5--5--5--5--5--5--|
G#|--5------5--5--5--5----|-----5--5--5--5----5--5--|--3--3--3--3--3--3--3--3--|
C#|--5------5--5--5--5----|--L--5--5--5--5----5--5--|--------------------------|


     E  E  E  E  E  E  E  E     E  E  E  E  E  E  E  E   
D#|--------------------------|--------------------------|
A#|--------------------------|--------------------------|
F#|--5--5--5--5--5--5--5--5--|--6--6--6--6--6--6--6--6--|
C#|--5--5--5--5--5--5--5--5--|--6--6--6--6--6--6--6--6--|
G#|--3--3--3--3--3--3--3--3--|--4--4--4--4--4--4--4--4--|
C#|--------------------------|--------------------------|


                                     PM PM PM PM PM             PM PM PM PM PM PM  
     E  E  E  E  E  E  E  E     Q    E  E  E  E  E  E     E  E  E  E  E  E  E  E   
D#|--------------------------|-------------------------|--------------------------|
A#|--------------------------|-------------------------|--------------------------|
F#|--6--6--6--6--6--6--6--6--|-------------------------|--------------------------|
C#|--6--6--6--6--6--6--6--6--|--7-------------------8--|--L--8--------------------|
G#|--4--4--4--4--4--4--4--4--|--5----5--5--5--5--5--5--|--L--5--5--5--5--5--5--5--|
C#|--------------------------|-------------------------|--------------------------|


          PM PM PM PM PM             PM PM PM PM PM PM         PM PM PM PM PM     
     Q    E  E  E  E  E  E     E  E  E  E  E  E  E  E     Q    E  E  E  E  E  E   
D#|-------------------------|--------------------------|-------------------------|
A#|-------------------------|--------------------------|-------------------------|
F#|-------------------------|--------------------------|-------------------------|
C#|--5-------------------7--|--L--7--------------------|--7-------------------8--|
G#|--5----5--5--5--5--5--5--|--L--5--5--5--5--5--5--5--|--5----5--5--5--5--5--5--|
C#|-------------------------|--------------------------|-------------------------|


           PM PM PM PM PM PM                                               
     E  E  E  E  E  E  E  E     Q.     Q.     Q       E  Q.     Q    Q     
D#|--------------------------|---------------------|----------------------|
A#|--------------------------|---------------------|----------------------|
F#|--------------------------|---------------------|----------------------|
C#|--L--8--------------------|--5------3------2----|--L--0------2----3----|
G#|--L--5--5--5--5--5--5--5--|--3------3------3----|--L--3------3----3----|
C#|--------------------------|---------------------|----------------------|


          PM PM PM PM PM             PM PM PM PM PM PM         PM PM PM PM PM     
     Q    E  E  E  E  E  E     E  E  E  E  E  E  E  E     Q    E  E  E  E  E  E   
D#|-------------------------|--------------------------|-------------------------|
A#|-------------------------|--------------------------|-------------------------|
F#|-------------------------|--------------------------|-------------------------|
C#|--7-------------------8--|--L--8--------------------|--5-------------------7--|
G#|--5----5--5--5--5--5--5--|--L--5--5--5--5--5--5--5--|--5----5--5--5--5--5--5--|
C#|-------------------------|--------------------------|-------------------------|


           PM PM PM PM PM PM         PM PM PM PM PM             PM PM PM PM PM PM  
     E  E  E  E  E  E  E  E     Q    E  E  E  E  E  E     E  E  E  E  E  E  E  E   
D#|--------------------------|-------------------------|--------------------------|
A#|--------------------------|-------------------------|--------------------------|
F#|--------------------------|-------------------------|--------------------------|
C#|--L--7--------------------|--7-------------------8--|--L--8--------------------|
G#|--L--5--5--5--5--5--5--5--|--5----5--5--5--5--5--5--|--L--5--5--5--5--5--5--5--|
C#|--------------------------|-------------------------|--------------------------|


                                                       PM PM PM PM PM     
     Q.     Q.     Q       E  Q.     Q    Q       Q    E  E  E  E  E  E   
D#|---------------------|----------------------|-------------------------|
A#|---------------------|----------------------|-------------------------|
F#|---------------------|----------------------|-------------------------|
C#|--5------3------2----|--L--0------2----3----|--7-------------------8--|
G#|--3------3------3----|--L--3------3----3----|--5----5--5--5--5--5--5--|
C#|---------------------|----------------------|-------------------------|


           PM PM PM PM PM PM         PM PM PM PM PM             PM PM PM PM PM PM  
     E  E  E  E  E  E  E  E     Q    E  E  E  E  E  E     E  E  E  E  E  E  E  E   
D#|--------------------------|-------------------------|--------------------------|
A#|--------------------------|-------------------------|--------------------------|
F#|--------------------------|-------------------------|--------------------------|
C#|--L--8--------------------|--5-------------------7--|--L--7--------------------|
G#|--L--5--5--5--5--5--5--5--|--5----5--5--5--5--5--5--|--L--5--5--5--5--5--5--5--|
C#|--------------------------|-------------------------|--------------------------|


          PM PM PM PM PM             PM PM PM PM PM PM                        
     Q    E  E  E  E  E  E     E  E  E  E  E  E  E  E     Q.     Q.     Q     
D#|-------------------------|--------------------------|---------------------|
A#|-------------------------|--------------------------|---------------------|
F#|-------------------------|--------------------------|---------------------|
C#|--7-------------------8--|--L--8--------------------|--5------3------2----|
G#|--5----5--5--5--5--5--5--|--L--5--5--5--5--5--5--5--|--3------3------3----|
C#|-------------------------|--------------------------|---------------------|


     E  Q.     Q    Q       H.           Q       Q    H        Q     
D#|----------------------|--------------------|---------------------|
A#|----------------------|--------------------|---------------------|
F#|----------------------|--------------------|---------------------|
C#|--L--0------2----3----|--1------------1----|--L----1--------L----|
G#|--L--3------3----3----|--1------------1----|--L----1--------L----|
C#|----------------------|--1------------1----|--L----1--------L----|


     E  E  E  E  E  E  E  E     E  E  E  E  E  E  E  E   
D#|--------------------------|--------------------------|
A#|--------------------------|--------------------------|
F#|--------------------------|--------------------------|
C#|--------------------------|--------------------------|
G#|--5--6-----3--5-----1--3--|-----0--1-----0--1--0-----|
C#|--------------------------|-----------------------3--|


     E  E  E  E  E  E  E  E     E  E  E  E  E  E  E  E   
D#|--------------------------|--------------------------|
A#|--------------------------|--------------------------|
F#|--------------------------|--------------------------|
C#|--5--5--5--7--7--7--8--8--|--8--8--5--5--7--7--8--8--|
G#|--5--5--5--5--5--5--5--5--|--5--5--5--5--5--5--5--5--|
C#|--5--5--5--5--5--5--5--5--|--5--5--5--5--5--5--5--5--|


     E  E  E  E  E  E  E  E     E  E  E  E  E  E  E  E   
D#|--------------------------|--------------------------|
A#|--------------------------|--------------------------|
F#|--3--3--3-----------------|--------------------------|
C#|--x--x--x--7--7--7--3--3--|--3--3--3--3--5--5--7--7--|
G#|--3--3--3--3--3--3--3--3--|--3--3--3--3--3--3--3--3--|
C#|--3--3--3--3--3--3--3--3--|--3--3--3--3--3--3--3--3--|


     E  E  E  E  E  E  E  E     E  E  E  E  E  E  E  E   
D#|--------------------------|--------------------------|
A#|--------------------------|--------------------------|
F#|--3--3--3--2--2--2--------|--------------------------|
C#|--x--x--x--x--x--x--3--3--|--3--3--3--3--0--0--3--3--|
G#|--1--1--1--1--1--1--1--1--|--1--1--1--1--1--1--1--1--|
C#|--1--1--1--1--1--1--1--1--|--1--1--1--1--1--1--1--1--|


     E  E  E  E  E  E  E  E     E  E  E  E  E  E  E  E   
D#|--------------------------|--------------------------|
A#|--------------------------|--------------------------|
F#|--------------------------|--------------------------|
C#|--3--3--3--3--------3--3--|--3--3--------3--3--3--3--|
G#|--3--3--3--3--------3--3--|--3--3--------3--3--3--3--|
C#|--3--3--3--3--------3--3--|--3--3--------3--3--3--3--|


     E  E  E  E  E  E  E  E     E  E  E  E  E  E  E  E   
D#|--------------------------|--------------------------|
A#|--------------------------|--------------------------|
F#|--------------------------|--------------------------|
C#|--5--5--5--7--7--7--8--8--|--8--8--5--5--7--7--8--8--|
G#|--5--5--5--5--5--5--5--5--|--5--5--5--5--5--5--5--5--|
C#|--5--5--5--5--5--5--5--5--|--5--5--5--5--5--5--5--5--|


     E  E  E  E  E  E  E  E     E  E  E  E  E  E  E  E   
D#|--------------------------|--------------------------|
A#|--------------------------|--------------------------|
F#|--3--3--3-----------------|--------------------------|
C#|--x--x--x--7--7--7--3--3--|--3--3--3--3--5--5--7--7--|
G#|--3--3--3--3--3--3--3--3--|--3--3--3--3--3--3--3--3--|
C#|--3--3--3--3--3--3--3--3--|--3--3--3--3--3--3--3--3--|


     E  E  E  E  E  E  E  E     E  E  E  E  E  E  E  E   
D#|--------------------------|--------------------------|
A#|--------------------------|--------------------------|
F#|--3--3--3--2--2--2--------|--------------------------|
C#|--x--x--x--x--x--x--3--3--|--3--3--3--3--0--0--3--3--|
G#|--1--1--1--1--1--1--1--1--|--1--1--1--1--1--1--1--1--|
C#|--1--1--1--1--1--1--1--1--|--1--1--1--1--1--1--1--1--|


     E  E  E  E  E  E  E  E     E  E  E  E  E  E  E  E   
D#|--------------------------|--------------------------|
A#|--------------------------|--------------------------|
F#|--------------------------|--------------------------|
C#|--3--3--3--3--------3--3--|--3--3--------3--3--3--3--|
G#|--3--3--3--3--------3--3--|--3--3--------3--3--3--3--|
C#|--3--3--3--3--------3--3--|--3--3--------3--3--3--3--|


     E  E  E  E  E  E  E  E     E  E  E  E  E  E  E  E   
D#|--------------------------|--------------------------|
A#|--------------------------|--------------------------|
F#|--------------------------|--------------------------|
C#|--5--5--5--7--7--7--8--8--|--8--8--5--5--7--7--8--8--|
G#|--5--5--5--5--5--5--5--5--|--5--5--5--5--5--5--5--5--|
C#|--5--5--5--5--5--5--5--5--|--5--5--5--5--5--5--5--5--|


     E  E  E  E  E  E  E  E     E  E  E  E  E  E  E  E   
D#|--------------------------|--------------------------|
A#|--------------------------|--------------------------|
F#|--3--3--3-----------------|--------------------------|
C#|--x--x--x--7--7--7--3--3--|--3--3--3--3--5--5--7--7--|
G#|--3--3--3--3--3--3--3--3--|--3--3--3--3--3--3--3--3--|
C#|--3--3--3--3--3--3--3--3--|--3--3--3--3--3--3--3--3--|


     E  E  E  E  E  E  E  E     E  E  E  E  E  E  E  E   
D#|--------------------------|--------------------------|
A#|--------------------------|--------------------------|
F#|--3--3--3--2--2--2--------|--------------------------|
C#|--x--x--x--x--x--x--3--3--|--3--3--3--3--0--0--3--3--|
G#|--1--1--1--1--1--1--1--1--|--1--1--1--1--1--1--1--1--|
C#|--1--1--1--1--1--1--1--1--|--1--1--1--1--1--1--1--1--|


     E  E  E  E  E  E  E  E     E  E  E  E  E  E  E  E   
D#|--------------------------|--------------------------|
A#|--------------------------|--------------------------|
F#|--------------------------|--------------------------|
C#|--3--3--3--3--3--3--3--3--|--3--3--3--3--3--3--3--3--|
G#|--3--3--3--3--3--3--3--3--|--3--3--3--3--3--3--3--3--|
C#|--3--3--3--3--3--3--3--3--|--3--3--3--3--3--3--3--3--|


     E  E  E  E  E  E  E  E     E  E  E  E  E  E  E  E   
D#|--------------------------|--------------------------|
A#|--------------------------|--------------------------|
F#|--------------------------|--------------------------|
C#|--5--5--5--7--7--7--8--8--|--8--8--5--5--7--7--8--8--|
G#|--5--5--5--5--5--5--5--5--|--5--5--5--5--5--5--5--5--|
C#|--5--5--5--5--5--5--5--5--|--5--5--5--5--5--5--5--5--|


     E  E  E  E  E  E  E  E     E  E  E  E  E  E  E  E   
D#|--------------------------|--------------------------|
A#|--------------------------|--------------------------|
F#|--3--3--3-----------------|--------------------------|
C#|--x--x--x--7--7--7--3--3--|--3--3--3--3--5--5--7--7--|
G#|--3--3--3--3--3--3--3--3--|--3--3--3--3--3--3--3--3--|
C#|--3--3--3--3--3--3--3--3--|--3--3--3--3--3--3--3--3--|


     E  E  E  E  E  E  E  E     E  E  E  E  E  E  E  E   
D#|--------------------------|--------------------------|
A#|--------------------------|--------------------------|
F#|--3--3--3--2--2--2--------|--------------------------|
C#|--x--x--x--x--x--x--3--3--|--3--3--3--3--0--0--3--3--|
G#|--1--1--1--1--1--1--1--1--|--1--1--1--1--1--1--1--1--|
C#|--1--1--1--1--1--1--1--1--|--1--1--1--1--1--1--1--1--|


     E  E  E  E  E  E  E  E     E  E  E  E  E  E  E  E   
D#|--------------------------|--------------------------|
A#|--------------------------|--------------------------|
F#|--------------------------|--------------------------|
C#|--3--3--3--3--3--3--3--3--|--3--3--3--3--3--3--3--3--|
G#|--3--3--3--3--3--3--3--3--|--3--3--3--3--3--3--3--3--|
C#|--3--3--3--3--3--3--3--3--|--3--3--3--3--3--3--3--3--|


     E  E  E  E  E  E  E  E     E  E  E  E  E  E  E  E   
D#|--------------------------|--------------------------|
A#|--------------------------|--------------------------|
F#|--------------------------|--------------------------|
C#|--5--5--5--7--7--7--8--8--|--8--8--5--5--7--7--8--8--|
G#|--5--5--5--5--5--5--5--5--|--5--5--5--5--5--5--5--5--|
C#|--5--5--5--5--5--5--5--5--|--5--5--5--5--5--5--5--5--|


     E  E  E  E  E  E  E  E     E  E  E  E  E  E  E  E   
D#|--------------------------|--------------------------|
A#|--------------------------|--------------------------|
F#|--3--3--3-----------------|--------------------------|
C#|--x--x--x--7--7--7--3--3--|--3--3--3--3--5--5--7--7--|
G#|--3--3--3--3--3--3--3--3--|--3--3--3--3--3--3--3--3--|
C#|--3--3--3--3--3--3--3--3--|--3--3--3--3--3--3--3--3--|


     E  E  E  E  E  E  E  E     E  E  E  E  E  E  E  E   
D#|--------------------------|--------------------------|
A#|--------------------------|--------------------------|
F#|--3--3--3--2--2--2--------|--------------------------|
C#|--x--x--x--x--x--x--3--3--|--3--3--3--3--0--0--3--3--|
G#|--1--1--1--1--1--1--1--1--|--1--1--1--1--1--1--1--1--|
C#|--1--1--1--1--1--1--1--1--|--1--1--1--1--1--1--1--1--|


     E  E  E  E  E  E  E  E     E  E  E  E  E  E  E  E   
D#|--------------------------|--------------------------|
A#|--------------------------|--------------------------|
F#|--------------------------|--------------------------|
C#|--3--3--3--3--3--3--3--3--|--3--3--3--3--3--3--3--3--|
G#|--3--3--3--3--3--3--3--3--|--3--3--3--3--3--3--3--3--|
C#|--3--3--3--3--3--3--3--3--|--3--3--3--3--3--3--3--3--|


     E  E  E  E  E  E  E  E     E  E  E  E  E  E  E  E   
D#|--------------------------|--------------------------|
A#|--------------------------|--------------------------|
F#|--------------------------|--------------------------|
C#|--5--5--5--7--7--7--8--8--|--8--8--5--5--7--7--8--8--|
G#|--5--5--5--5--5--5--5--5--|--5--5--5--5--5--5--5--5--|
C#|--5--5--5--5--5--5--5--5--|--5--5--5--5--5--5--5--5--|


     E  E  E  E  E  E  E  E     E  E  E  E  E  E  E  E   
D#|--------------------------|--------------------------|
A#|--------------------------|--------------------------|
F#|--3--3--3-----------------|--------------------------|
C#|--x--x--x--7--7--7--3--3--|--3--3--3--3--5--5--7--7--|
G#|--3--3--3--3--3--3--3--3--|--3--3--3--3--3--3--3--3--|
C#|--3--3--3--3--3--3--3--3--|--3--3--3--3--3--3--3--3--|


     E  E  E  E  E  E  E  E     E  E  E  E  E  E  E  E   
D#|--------------------------|--------------------------|
A#|--------------------------|--------------------------|
F#|--3--3--3--2--2--2--------|--------------------------|
C#|--x--x--x--x--x--x--3--3--|--3--3--3--3--0--0--3--3--|
G#|--1--1--1--1--1--1--1--1--|--1--1--1--1--1--1--1--1--|
C#|--1--1--1--1--1--1--1--1--|--1--1--1--1--1--1--1--1--|


     E  E  E  E  E  E  E  E     E  E  E  E  E  E  E  E   
D#|--------------------------|--------------------------|
A#|--------------------------|--------------------------|
F#|--------------------------|--------------------------|
C#|--3--3--3--3--3--3--3--3--|--3--3--3--3--3--3--3--3--|
G#|--3--3--3--3--3--3--3--3--|--3--3--3--3--3--3--3--3--|
C#|--3--3--3--3--3--3--3--3--|--3--3--3--3--3--3--3--3--|


     E  E  E  E  E  E  E  E     E  E  E  E  E  E  E  E   
D#|--------------------------|--------------------------|
A#|--------------------------|--------------------------|
F#|--------------------------|--------------------------|
C#|--5--5--5--7--7--7--8--8--|--8--8--5--5--7--7--8--8--|
G#|--5--5--5--5--5--5--5--5--|--5--5--5--5--5--5--5--5--|
C#|--5--5--5--5--5--5--5--5--|--5--5--5--5--5--5--5--5--|


     E  E  E  E  E  E  E  E     E  E  E  E  E  E  E  E   
D#|--------------------------|--------------------------|
A#|--------------------------|--------------------------|
F#|--3--3--3-----------------|--------------------------|
C#|--x--x--x--7--7--7--3--3--|--3--3--3--3--5--5--7--7--|
G#|--3--3--3--3--3--3--3--3--|--3--3--3--3--3--3--3--3--|
C#|--3--3--3--3--3--3--3--3--|--3--3--3--3--3--3--3--3--|


     E  E  E  E  E  E  E  E     E  E  E  E  E  E  E  E   
D#|--------------------------|--------------------------|
A#|--------------------------|--------------------------|
F#|--3--3--3--2--2--2--------|--------------------------|
C#|--x--x--x--x--x--x--3--3--|--3--3--3--3--0--0--3--3--|
G#|--1--1--1--1--1--1--1--1--|--1--1--1--1--1--1--1--1--|
C#|--1--1--1--1--1--1--1--1--|--1--1--1--1--1--1--1--1--|


     E  E  E  E  E  E  E  E     E  E  E  E  E  E  E  E   
D#|--------------------------|--------------------------|
A#|--------------------------|--------------------------|
F#|--------------------------|--------------------------|
C#|--3--3--3--3--3--3--3--3--|--3--3--3--3--3--3--3--3--|
G#|--3--3--3--3--3--3--3--3--|--3--3--3--3--3--3--3--3--|
C#|--3--3--3--3--3--3--3--3--|--3--3--3--3--3--3--3--3--|


     E  E  E  E  E  E  E  E     E  E  E  E  E  E  E  E   
D#|--------------------------|--------------------------|
A#|--------------------------|--------------------------|
F#|--------------------------|--------------------------|
C#|--5--5--5--7--7--7--8--8--|--8--8--5--5--7--7--8--8--|
G#|--5--5--5--5--5--5--5--5--|--5--5--5--5--5--5--5--5--|
C#|--5--5--5--5--5--5--5--5--|--5--5--5--5--5--5--5--5--|


     E  E  E  E  E  E  E  E     E  E  E  E  E  E  E  E   
D#|--------------------------|--------------------------|
A#|--------------------------|--------------------------|
F#|--3--3--3-----------------|--------------------------|
C#|--x--x--x--7--7--7--3--3--|--3--3--3--3--5--5--7--7--|
G#|--3--3--3--3--3--3--3--3--|--3--3--3--3--3--3--3--3--|
C#|--3--3--3--3--3--3--3--3--|--3--3--3--3--3--3--3--3--|


     E  E  E  E  E  E  E  E     E  E  E  E  E  E  E  E   
D#|--------------------------|--------------------------|
A#|--------------------------|--------------------------|
F#|--3--3--3--2--2--2--------|--------------------------|
C#|--x--x--x--x--x--x--3--3--|--3--3--3--3--0--0--3--3--|
G#|--1--1--1--1--1--1--1--1--|--1--1--1--1--1--1--1--1--|
C#|--1--1--1--1--1--1--1--1--|--1--1--1--1--1--1--1--1--|


     E  E  E  E  E  E  E  E     E  E  E  E  E  E  E  E    
D#|--------------------------|--------------------------||
A#|--------------------------|--------------------------||
F#|--------------------------|--------------------------||
C#|--3--3--3--3--3--3--3--3--|--3--3--3--3--3--3--3--3--||
G#|--3--3--3--3--3--3--3--3--|--3--3--3--3--3--3--3--3--||
C#|--3--3--3--3--3--3--3--3--|--3--3--3--3--3--3--3--3--||

Guitar 2

      E  E  E  E  E  E  E  E     E  E  E  E  E  E  E  E   
D#|--------------------------|--------------------------|
A#|--------------------------|--------------------------|
F#|--------------------------|--------------------------|
C#|--------7--L--L--7--L--8--|--L--L--8--L--L--L--8--L--|
G#|--5--5--L--5--5--L--5--L--|--L--5--L--5--5--5--L--5--|
C#|--------------------------|--------------------------|


     E  E  E  E  E  E  E  E     E  E  E  E  E  E  E  E   
D#|--------------------------|--------------------------|
A#|--------------------------|--------------------------|
F#|--------------------------|--------------------------|
C#|--------5--L--L--5--L--7--|--L--L--7--L--L--L--7--L--|
G#|--5--5--L--5--5--L--5--L--|--L--5--L--5--5--5--L--5--|
C#|--------------------------|--------------------------|


     E  E  E  E  E  E  E  E     E  E  E  E  E  E  E  E   
D#|--------------------------|--------------------------|
A#|--------------------------|--------------------------|
F#|--------------------------|--------------------------|
C#|--------3--L--L--3--L--5--|--L--L--5--L--L--L--5--L--|
G#|--5--5--L--5--5--L--5--L--|--L--5--L--5--5--5--L--5--|
C#|--------------------------|--------------------------|


     E  E  E  E  E  E  E  E     E  E  E  E  E  E  E  E   
D#|--------------------------|--------------------------|
A#|--------------------------|--------------------------|
F#|--------------------------|--------------------------|
C#|--5--L--L--3--L--L--2--L--|--L--0--L--L--2--L--3--L--|
G#|-----3--3--L--3--3--L--3--|--3--L--3--3--L--3--L--3--|
C#|--------------------------|--------------------------|


     E  E  E  E  E  E  E  E     E  E  E  E  E  E  E  E   
D#|--------------------------|--------------------------|
A#|--------------------------|--------------------------|
F#|--------------------------|--------------------------|
C#|--------7--L--L--7--L--8--|--L--L--8--L--L--L--8--L--|
G#|--5--5--L--5--5--L--5--L--|--L--5--L--5--5--5--L--5--|
C#|--------------------------|--------------------------|


     E  E  E  E  E  E  E  E     E  E  E  E  E  E  E  E   
D#|--------------------------|--------------------------|
A#|--------------------------|--------------------------|
F#|--------------------------|--------------------------|
C#|--------5--L--L--5--L--7--|--L--L--7--L--L--L--7--L--|
G#|--5--5--L--5--5--L--5--L--|--L--5--L--5--5--5--L--5--|
C#|--------------------------|--------------------------|


     E  E  E  E  E  E  E  E     E  E  E  E  E  E  E  E   
D#|--------------------------|--------------------------|
A#|--------------------------|--------------------------|
F#|--------------------------|--------------------------|
C#|--------3--L--L--3--L--5--|--L--L--5--L--L--L--5--L--|
G#|--5--5--L--5--5--L--5--L--|--L--5--L--5--5--5--L--5--|
C#|--------------------------|--------------------------|


     E  E  E  E  E  E  E  E     E  E  E  E  E  E  E  E   
D#|--------------------------|--------------------------|
A#|--------------------------|--------------------------|
F#|--------------------------|--------------------------|
C#|--5--L--L--3--L--L--2--L--|--L--0--L--L--2--L--3--L--|
G#|-----3--3--L--3--3--L--3--|--3--L--3--3--L--3--L--3--|
C#|--------------------------|--------------------------|


     E  E  E  E  E  E  E  E     E  E  E  E  E  E  E  E   
D#|--------------------------|--------------------------|
A#|--------------------------|--------------------------|
F#|--------------------------|--------------------------|
C#|--------7--L--L--7--L--8--|--L--L--8--L--L--L--8--L--|
G#|--5--5--L--5--5--L--5--L--|--L--5--L--5--5--5--L--5--|
C#|--------------------------|--------------------------|


     E  E  E  E  E  E  E  E     E  E  E  E  E  E  E  E   
D#|--------------------------|--------------------------|
A#|--------------------------|--------------------------|
F#|--------------------------|--------------------------|
C#|--------5--L--L--5--L--7--|--L--L--7--L--L--L--7--L--|
G#|--5--5--L--5--5--L--5--L--|--L--5--L--5--5--5--L--5--|
C#|--------------------------|--------------------------|


     E  E  E  E  E  E  E  E     E  E  E  E  E  E  E  E   
D#|--------------------------|--------------------------|
A#|--------------------------|--------------------------|
F#|--------------------------|--------------------------|
C#|--------3--L--L--3--L--5--|--L--L--5--L--L--L--5--L--|
G#|--5--5--L--5--5--L--5--L--|--L--5--L--5--5--5--L--5--|
C#|--------------------------|--------------------------|


     E  E  E  E  E  E  E  E     E  E  E  E  E  E  E  E   
D#|--------------------------|--------------------------|
A#|--------------------------|--------------------------|
F#|--------------------------|--------------------------|
C#|--5--L--L--3--L--L--2--L--|--L--0--L--L--2--L--3--L--|
G#|-----3--3--L--3--3--L--3--|--3--L--3--3--L--3--L--3--|
C#|--------------------------|--------------------------|


     E  E  E  E  E  E  E  E     E  E  E  E  E  E  E  E   
D#|--------------------------|--------------------------|
A#|--------------------------|--------------------------|
F#|--------------------------|--------------------------|
C#|--------7--L--L--7--L--8--|--L--L--8--L--L--L--8--L--|
G#|--5--5--L--5--5--L--5--L--|--L--5--L--5--5--5--L--5--|
C#|--------------------------|--------------------------|


     E  E  E  E  E  E  E  E     E  E  E  E  E  E  E  E   
D#|--------------------------|--------------------------|
A#|--------------------------|--------------------------|
F#|--------------------------|--------------------------|
C#|--------5--L--L--5--L--7--|--L--L--7--L--L--L--7--L--|
G#|--5--5--L--5--5--L--5--L--|--L--5--L--5--5--5--L--5--|
C#|--------------------------|--------------------------|


     E  E  E  E  E  E  E  E     E  E  E  E  E  E  E  E   
D#|--------------------------|--------------------------|
A#|--------------------------|--------------------------|
F#|--------------------------|--------------------------|
C#|--------3--L--L--3--L--5--|--L--L--5--L--L--L--5--L--|
G#|--5--5--L--5--5--L--5--L--|--L--5--L--5--5--5--L--5--|
C#|--------------------------|--------------------------|


     E  E  E  E  E  E  E  E     E  E  E  E  E  E  E  E   
D#|--------------------------|--------------------------|
A#|--------------------------|--------------------------|
F#|--------------------------|--------------------------|
C#|--5--L--L--3--L--L--2--L--|--L--0--L--L--2--L--3--L--|
G#|-----3--3--L--3--3--L--3--|--3--L--3--3--L--3--L--3--|
C#|--------------------------|--------------------------|


     E  E  E  E  E  E  E  E     E  E  E  E  E  E  E  E   
D#|--------------------------|--------------------------|
A#|--------------------------|--------------------------|
F#|--------------------------|--------------------------|
C#|--------7--L--L--7--L--8--|--L--L--8--L--L--L--8--L--|
G#|--5--5--L--5--5--L--5--L--|--L--5--L--5--5--5--L--5--|
C#|--------------------------|--------------------------|


     E  E  E  E  E  E  E  E     E  E  E  E  E  E  E  E   
D#|--------------------------|--------------------------|
A#|--------------------------|--------------------------|
F#|--------------------------|--------------------------|
C#|--------5--L--L--5--L--7--|--L--L--7--L--L--L--7--L--|
G#|--5--5--L--5--5--L--5--L--|--L--5--L--5--5--5--L--5--|
C#|--------------------------|--------------------------|


     E  E  E  E  E  E  E  E     E  E  E  E  E  E  E  E     W                 
D#|--------------------------|--------------------------|-------------------|
A#|--------------------------|--------------------------|-------------------|
F#|--------------------------|--------------------------|--5----------------|
C#|--------3--L--L--3--L--5--|--L--L--5--L--L--L--5--L--|--5----------------|
G#|--5--5--L--5--5--L--5--L--|--L--5--L--5--5--5--L--5--|--3----------------|
C#|--------------------------|--------------------------|-------------------|


     W                    E   E   E   Q     E   E   E   
D#|-------------------|--------------------------------|
A#|-------------------|--------------------------------|
F#|--L----------------|--14----------------------------|
C#|--L----------------|------15--14--12----14--15--12--|
G#|--L----------------|--------------------------------|
C#|-------------------|--------------------------------|


      E   E   E   Q     E   E   E      E   E   E   Q     E   E   E   
D#|--------------------------------|--------------------------------|
A#|--------------------------------|--------------------------------|
F#|--15----------------------------|--------------------------------|
C#|------15--14--12----14--15--12--|--10--14--12--10----12--14--12--|
G#|--------------------------------|--------------------------------|
C#|--------------------------------|--------------------------------|


      E   E   Q      E   E   E   E      E   E   E   Q     E   E   E   
D#|---------------------------------|--------------------------------|
A#|---------------------------------|--------------------------------|
F#|---------------------------------|--14----------------------------|
C#|--14--12--14b----14--12------12--|------15--14--12----14--15--12--|
G#|-------------------------12------|--------------------------------|
C#|---------------------------------|--------------------------------|


      E   E   E   Q     E   E   E      Q.      Q.      Q     
D#|--------------------------------|------------------------|
A#|--------------------------------|------------------------|
F#|--15----------------------------|--12--------------------|
C#|------15--14--12----14--15--12--|----------15------14----|
G#|--------------------------------|------------------------|
C#|--------------------------------|------------------------|


                                    PM PM PM PM PM             PM PM PM PM PM PM  
     E   Q.      Q     Q       Q    E  E  E  E  E  E     E  E  E  E  E  E  E  E   
D#|-------------------------|-------------------------|--------------------------|
A#|-------------------------|-------------------------|--------------------------|
F#|-------------------------|-------------------------|--------------------------|
C#|--L--12------14----15----|--7-------------------8--|--L--8--------------------|
G#|-------------------------|--5----5--5--5--5--5--5--|--L--5--5--5--5--5--5--5--|
C#|-------------------------|-------------------------|--------------------------|


          PM PM PM PM PM             PM PM PM PM PM PM         PM PM PM PM PM     
     Q    E  E  E  E  E  E     E  E  E  E  E  E  E  E     Q    E  E  E  E  E  E   
D#|-------------------------|--------------------------|-------------------------|
A#|-------------------------|--------------------------|-------------------------|
F#|-------------------------|--------------------------|-------------------------|
C#|--5-------------------7--|--L--7--------------------|--7-------------------8--|
G#|--5----5--5--5--5--5--5--|--L--5--5--5--5--5--5--5--|--5----5--5--5--5--5--5--|
C#|-------------------------|--------------------------|-------------------------|


           PM PM PM PM PM PM                                               
     E  E  E  E  E  E  E  E     Q.     Q.     Q       E  Q.     Q    Q     
D#|--------------------------|---------------------|----------------------|
A#|--------------------------|---------------------|----------------------|
F#|--------------------------|---------------------|----------------------|
C#|--L--8--------------------|--5------3------2----|--L--0------2----3----|
G#|--L--5--5--5--5--5--5--5--|--3------3------3----|--L--3------3----3----|
C#|--------------------------|---------------------|----------------------|


          PM PM PM PM PM             PM PM PM PM PM PM         PM PM PM PM PM     
     Q    E  E  E  E  E  E     E  E  E  E  E  E  E  E     Q    E  E  E  E  E  E   
D#|-------------------------|--------------------------|-------------------------|
A#|-------------------------|--------------------------|-------------------------|
F#|-------------------------|--------------------------|-------------------------|
C#|--7-------------------8--|--L--8--------------------|--5-------------------7--|
G#|--5----5--5--5--5--5--5--|--L--5--5--5--5--5--5--5--|--5----5--5--5--5--5--5--|
C#|-------------------------|--------------------------|-------------------------|


           PM PM PM PM PM PM         PM PM PM PM PM             PM PM PM PM PM PM  
     E  E  E  E  E  E  E  E     Q    E  E  E  E  E  E     E  E  E  E  E  E  E  E   
D#|--------------------------|-------------------------|--------------------------|
A#|--------------------------|-------------------------|--------------------------|
F#|--------------------------|-------------------------|--------------------------|
C#|--L--7--------------------|--7-------------------8--|--L--8--------------------|
G#|--L--5--5--5--5--5--5--5--|--5----5--5--5--5--5--5--|--L--5--5--5--5--5--5--5--|
C#|--------------------------|-------------------------|--------------------------|


     Q.     Q.     Q       E  Q.     Q    Q       H.           Q     
D#|---------------------|----------------------|--------------------|
A#|---------------------|----------------------|--------------------|
F#|---------------------|----------------------|--------------------|
C#|--5------3------2----|--L--0------2----3----|--1------------1----|
G#|--3------3------3----|--L--3------3----3----|--1------------1----|
C#|---------------------|----------------------|--1------------1----|


     Q    H        Q       E  E  E  E  E  E  E  E     E  E  E  E  E  E  E  E   
D#|---------------------|--------------------------|--------------------------|
A#|---------------------|--------------------------|--------------------------|
F#|---------------------|--------------------------|--------------------------|
C#|--L----1--------L----|--------------------------|--------------------------|
G#|--L----1--------L----|--5--6-----3--5-----1--3--|-----0--1-----0--1--0-----|
C#|--L----1--------L----|--------------------------|-----------------------3--|


      Q.      Q.      Q       Q     Q     Q     Q        Q.      Q.      Q     
D#|----------10------------|-------------10----------|----------10------------|
A#|--11--------------11----|--L----11----------11----|--10--------------10----|
F#|------------------------|-------------------------|------------------------|
C#|------------------------|-------------------------|------------------------|
G#|------------------------|-------------------------|------------------------|
C#|------------------------|-------------------------|------------------------|


     Q     Q     Q     Q        Q.      Q.      Q       Q     Q     Q     Q     
D#|-------------10----------|----------10------------|-------------10----------|
A#|--L----10----------10----|------------------------|-------------------------|
F#|-------------------------|--12--------------12----|--L----12----------12----|
C#|-------------------------|------------------------|-------------------------|
G#|-------------------------|------------------------|-------------------------|
C#|-------------------------|------------------------|-------------------------|


      H.            Q       H         H            Q.      Q.      Q     
D#|----------------------|---------------------|----------10------------|
A#|--10------------10----|--L--------10--------|--11--------------11----|
F#|----------------------|---------------------|------------------------|
C#|----------------------|---------------------|------------------------|
G#|----------------------|---------------------|------------------------|
C#|----------------------|---------------------|------------------------|


     Q     Q     Q     Q        Q.      Q.      Q       Q     Q     Q     Q     
D#|-------------10----------|----------10------------|-------------10----------|
A#|--L----11----------11----|--10--------------10----|--L----10----------10----|
F#|-------------------------|------------------------|-------------------------|
C#|-------------------------|------------------------|-------------------------|
G#|-------------------------|------------------------|-------------------------|
C#|-------------------------|------------------------|-------------------------|


      Q.      Q.      Q       Q     Q     Q     Q        H.            Q     
D#|----------10------------|-------------10----------|----------------------|
A#|------------------------|-------------------------|--10------------10----|
F#|--12--------------12----|--L----12----------12----|----------------------|
C#|------------------------|-------------------------|----------------------|
G#|------------------------|-------------------------|----------------------|
C#|------------------------|-------------------------|----------------------|


     H         H           W                   W                 
D#|---------------------|-------------------|-------------------|
A#|--L--------10--------|-------------------|-------------------|
F#|---------------------|-------------------|-------------------|
C#|---------------------|--5----------------|--L----------------|
G#|---------------------|--5----------------|--L----------------|
C#|---------------------|--5----------------|--L----------------|


                                                  PM PM PM PM PM     
     W                   W                   Q    E  E  E  E  E  E   
D#|-------------------|-------------------|-------------------------|
A#|-------------------|-------------------|-------------------------|
F#|-------------------|-------------------|-------------------------|
C#|--L----------------|--L----------------|--7-------------------8--|
G#|--L----------------|--L----------------|--5----5--5--5--5--5--5--|
C#|--L----------------|--L----------------|-------------------------|


           PM PM PM PM PM PM         PM PM PM PM PM             PM PM PM PM PM PM  
     E  E  E  E  E  E  E  E     Q    E  E  E  E  E  E     E  E  E  E  E  E  E  E   
D#|--------------------------|-------------------------|--------------------------|
A#|--------------------------|-------------------------|--------------------------|
F#|--------------------------|-------------------------|--------------------------|
C#|--L--8--------------------|--5-------------------7--|--L--7--------------------|
G#|--L--5--5--5--5--5--5--5--|--5----5--5--5--5--5--5--|--L--5--5--5--5--5--5--5--|
C#|--------------------------|-------------------------|--------------------------|


          PM PM PM PM PM             PM PM PM PM PM PM                        
     Q    E  E  E  E  E  E     E  E  E  E  E  E  E  E     Q.     Q.     Q     
D#|-------------------------|--------------------------|---------------------|
A#|-------------------------|--------------------------|---------------------|
F#|-------------------------|--------------------------|---------------------|
C#|--7-------------------8--|--L--8--------------------|--5------3------2----|
G#|--5----5--5--5--5--5--5--|--L--5--5--5--5--5--5--5--|--3------3------3----|
C#|-------------------------|--------------------------|---------------------|


                                 PM PM PM PM PM             PM PM PM PM PM PM  
     E  Q.     Q    Q       Q    E  E  E  E  E  E     E  E  E  E  E  E  E  E   
D#|----------------------|-------------------------|--------------------------|
A#|----------------------|-------------------------|--------------------------|
F#|----------------------|-------------------------|--------------------------|
C#|--L--0------2----3----|--7-------------------8--|--L--8--------------------|
G#|--L--3------3----3----|--5----5--5--5--5--5--5--|--L--5--5--5--5--5--5--5--|
C#|----------------------|-------------------------|--------------------------|


          PM PM PM PM PM             PM PM PM PM PM PM         PM PM PM PM PM     
     Q    E  E  E  E  E  E     E  E  E  E  E  E  E  E     Q    E  E  E  E  E  E   
D#|-------------------------|--------------------------|-------------------------|
A#|-------------------------|--------------------------|-------------------------|
F#|-------------------------|--------------------------|-------------------------|
C#|--5-------------------7--|--L--7--------------------|--7-------------------8--|
G#|--5----5--5--5--5--5--5--|--L--5--5--5--5--5--5--5--|--5----5--5--5--5--5--5--|
C#|-------------------------|--------------------------|-------------------------|


           PM PM PM PM PM PM                                               
     E  E  E  E  E  E  E  E     Q.     Q.     Q       E  Q.     Q    Q     
D#|--------------------------|---------------------|----------------------|
A#|--------------------------|---------------------|----------------------|
F#|--------------------------|---------------------|----------------------|
C#|--L--8--------------------|--5------3------2----|--L--0------2----3----|
G#|--L--5--5--5--5--5--5--5--|--3------3------3----|--L--3------3----3----|
C#|--------------------------|---------------------|----------------------|


     H.           Q       Q    H        Q       E  E  E  E  E  E  E  E   
D#|--------------------|---------------------|--------------------------|
A#|--------------------|---------------------|--------------------------|
F#|--------------------|---------------------|--------------------------|
C#|--1------------1----|--L----1--------L----|--------------------------|
G#|--1------------1----|--L----1--------L----|--5--6-----3--5-----1--3--|
C#|--1------------1----|--L----1--------L----|--------------------------|


     E  E  E  E  E  E  E  E      Q.      Q.      Q       Q     Q     Q     Q     
D#|--------------------------|----------10------------|-------------10----------|
A#|--------------------------|--11--------------11----|--L----11----------11----|
F#|--------------------------|------------------------|-------------------------|
C#|--------------------------|------------------------|-------------------------|
G#|-----0--1-----0--1--0-----|------------------------|-------------------------|
C#|-----------------------3--|------------------------|-------------------------|


      Q.      Q.      Q       Q     Q     Q     Q        Q.      Q.      Q     
D#|----------10------------|-------------10----------|----------10------------|
A#|--10--------------10----|--L----10----------10----|------------------------|
F#|------------------------|-------------------------|--12--------------12----|
C#|------------------------|-------------------------|------------------------|
G#|------------------------|-------------------------|------------------------|
C#|------------------------|-------------------------|------------------------|


     Q     Q     Q     Q        H.            Q       H         H         
D#|-------------10----------|----------------------|---------------------|
A#|-------------------------|--10------------10----|--L--------10--------|
F#|--L----12----------12----|----------------------|---------------------|
C#|-------------------------|----------------------|---------------------|
G#|-------------------------|----------------------|---------------------|
C#|-------------------------|----------------------|---------------------|


      Q.      Q.      Q       Q     Q     Q     Q        Q.      Q.      Q     
D#|----------10------------|-------------10----------|----------10------------|
A#|--11--------------11----|--L----11----------11----|--10--------------10----|
F#|------------------------|-------------------------|------------------------|
C#|------------------------|-------------------------|------------------------|
G#|------------------------|-------------------------|------------------------|
C#|------------------------|-------------------------|------------------------|


     Q     Q     Q     Q        Q.      Q.      Q       Q     Q     Q     Q     
D#|-------------10----------|----------10------------|-------------10----------|
A#|--L----10----------10----|------------------------|-------------------------|
F#|-------------------------|--12--------------12----|--L----12----------12----|
C#|-------------------------|------------------------|-------------------------|
G#|-------------------------|------------------------|-------------------------|
C#|-------------------------|------------------------|-------------------------|


      H.            Q       H         H            Q.       Q.       Q      
D#|----------------------|---------------------|---------------------------|
A#|--10------------10----|--L--------10--------|---8-------10-------11-----|
F#|----------------------|---------------------|--11b------13b------14b----|
C#|----------------------|---------------------|---------------------------|
G#|----------------------|---------------------|---------------------------|
C#|----------------------|---------------------|---------------------------|


     W                    Q.       Q.       Q        W                 
D#|-------------------|---------------------------|-------------------|
A#|--L----------------|--10-------11-------13-----|--L----------------|
F#|--L----------------|--13b------14b------16b----|--L----------------|
C#|-------------------|---------------------------|-------------------|
G#|-------------------|---------------------------|-------------------|
C#|-------------------|---------------------------|-------------------|


      Q.       Q.       Q        H         Q      Q         W                 
D#|---------------------------|-------------------------|--------------------|
A#|--11-------13-------15-----|--L--------18-----18-----|---L----------------|
F#|--14b------16b------18b----|--L--------21b----21b----|---L----------------|
C#|---------------------------|-------------------------|--------------------|
G#|---------------------------|-------------------------|--------------------|
C#|---------------------------|-------------------------|--------------------|


     W                                                                             
D#|-------------------|-------------------|-------------------|-------------------|
A#|--L----------------|-------------------|-------------------|-------------------|
F#|--L----------------|-------------------|-------------------|-------------------|
C#|-------------------|-------------------|-------------------|-------------------|
G#|-------------------|-------------------|-------------------|-------------------|
C#|-------------------|-------------------|-------------------|-------------------|


D#|-------------------|-------------------|-------------------|-------------------|
A#|-------------------|-------------------|-------------------|-------------------|
F#|-------------------|-------------------|-------------------|-------------------|
C#|-------------------|-------------------|-------------------|-------------------|
G#|-------------------|-------------------|-------------------|-------------------|
C#|-------------------|-------------------|-------------------|-------------------|


D#|-------------------|-------------------|-------------------|-------------------|
A#|-------------------|-------------------|-------------------|-------------------|
F#|-------------------|-------------------|-------------------|-------------------|
C#|-------------------|-------------------|-------------------|-------------------|
G#|-------------------|-------------------|-------------------|-------------------|
C#|-------------------|-------------------|-------------------|-------------------|


D#|-------------------|-------------------|-------------------|-------------------|
A#|-------------------|-------------------|-------------------|-------------------|
F#|-------------------|-------------------|-------------------|-------------------|
C#|-------------------|-------------------|-------------------|-------------------|
G#|-------------------|-------------------|-------------------|-------------------|
C#|-------------------|-------------------|-------------------|-------------------|


                          PM  PM      PM  PM      PM  PM  
                          E   E   E   E   E   E   E   E   
D#|-------------------|----------------------------------|
A#|-------------------|----------------------------------|
F#|-------------------|----------17----------15----------|
C#|-------------------|------15----------15----------15--|
G#|-------------------|--13----------13----------13------|
C#|-------------------|----------------------------------|


          PM  PM      PM  PM                                             
      E   E   E   E   E   E   E   E      E   E   E   E   E   E   E   E   
D#|----------------------------------|----------------------------------|
A#|----------------------------------|----------------------------------|
F#|--14----------15----------17------|----------19----------17------17--|
C#|----------15----------15------15--|------17----------17------17------|
G#|------13----------13--------------|--15----------15------------------|
C#|----------------------------------|----------------------------------|


      E   E   E   E   E   E   Q         W                  
D#|---------------------------------|---------------------|
A#|--18--17------18--17------18b----|--18~----------------|
F#|----------17----------17---------|---------------------|
C#|---------------------------------|---------------------|
G#|---------------------------------|---------------------|
C#|---------------------------------|---------------------|


     S S S S S S  S  S  S  S  S  S  S  S  S  S  
D#|--------------------------13-17-13----------|
A#|-----------------------15----------15-------|
F#|--------------------14----------------14----|
C#|-----------------15----------------------15-|
G#|--------8-----17----------------------------|
C#|--0-5-7---7-5-------------------------------|


      S  S  S  S  S  S  S  S  S  S  S  S  S  S  E       W                  
D#|--------------13-15-17-15-13---------------------|---------------------|
A#|-----------15----------------17-15-14------------|---------------------|
F#|--------14----------------------------17-15-17b--|--17b----------------|
C#|-----15------------------------------------------|---------------------|
G#|--17---------------------------------------------|---------------------|
C#|-------------------------------------------------|---------------------|


      PM  PM      PM  PM      PM  PM         PM  PM      PM  PM          
      E   E   E   E   E   E   E   E      E   E   E   E   E   E   E   E   
D#|----------------------------------|----------------------------------|
A#|----------------------------------|----------------------------------|
F#|----------17----------15----------|--14----------15----------17------|
C#|------15----------15----------15--|----------15----------15------15--|
G#|--13----------13----------13------|------13----------13--------------|
C#|----------------------------------|----------------------------------|


      E   E   E   E   E   E   E   E      E   E   E   E   E   E   E   E   
D#|----------------------------------|----------------------------------|
A#|----------------------------------|--18----------20------20------20--|
F#|----------19----------17------17--|----------17------17------17------|
C#|------17----------17------17------|------17--------------------------|
G#|--15----------15------------------|----------------------------------|
C#|----------------------------------|----------------------------------|


      W                    W                  
D#|--20b----------------|--L~----------------|
A#|---------------------|--------------------|
F#|---------------------|--------------------|
C#|---------------------|--------------------|
G#|---------------------|--------------------|
C#|---------------------|--------------------|


      S  S  S  S  S  S  S  S  S  S  S  S  S  S  S  S  
D#|--------------------------------------------------|
A#|--------------------------------------------------|
F#|-----------------------------12-10----14-10----17-|
C#|--12-10----14-10----15-10----------12-------12----|
G#|--------12-------12-------12----------------------|
C#|--------------------------------------------------|


      S  S  S  S  S  S  S  S  S  S  S  S  S  S  S  S     W                 
D#|--------------------------------------------18-20-|--22----------------|
A#|--------18-15-13-20-15-13----------18-20-22-------|--------------------|
F#|--14-12-------------------19-20-22----------------|--------------------|
C#|--------------------------------------------------|--------------------|
G#|--------------------------------------------------|--------------------|
C#|--------------------------------------------------|--------------------|


     H         Q    E   S  S     H.            Q        H         H         
D#|--------------------------|----------------------|------------15--------|
A#|-----------18----L--17-15-|--17------------17----|--18------------------|
F#|--------------------------|----------------------|----------------------|
C#|--------------------------|----------------------|----------------------|
G#|--------------------------|----------------------|----------------------|
C#|--------------------------|----------------------|----------------------|


      E   E   E   E   Q    E   E      E   E   Q    E   E   E   E   
D#|-------------------------------|-------------------------------|
A#|--15--18--17--18--15----L--18--|--17--18--15----L--18--17--18--|
F#|-------------------------------|-------------------------------|
C#|-------------------------------|-------------------------------|
G#|-------------------------------|-------------------------------|
C#|-------------------------------|-------------------------------|


      E   E   E   E   Q    E   E      E   E   Q    E   E   E   E   
D#|-------------------------------|-------------------------------|
A#|------18--17--18-----------18--|--17--18-----------18--17--18--|
F#|--17--------------17----L------|----------17----L--------------|
C#|-------------------------------|-------------------------------|
G#|-------------------------------|-------------------------------|
C#|-------------------------------|-------------------------------|


      H.            Q        H         Q    E   S  S     H.            Q     
D#|----------------------|---------------------------|----------------------|
A#|--15------------15----|--17--------18----L--17-15-|--17------------17----|
F#|----------------------|---------------------------|----------------------|
C#|----------------------|---------------------------|----------------------|
G#|----------------------|---------------------------|----------------------|
C#|----------------------|---------------------------|----------------------|


      H         H            E   E   E   E   Q    E   E   
D#|------------15--------|-------------------------------|
A#|--18------------------|--15--18--17--18--15----L--18--|
F#|----------------------|-------------------------------|
C#|----------------------|-------------------------------|
G#|----------------------|-------------------------------|
C#|----------------------|-------------------------------|


      E   E   Q    E   E   E   E      E   E   E   E   Q    E   E   
D#|-------------------------------|-------------------------------|
A#|--17--18--15----L--18--17--18--|------18--17--18-----------18--|
F#|-------------------------------|--17--------------17----L------|
C#|-------------------------------|-------------------------------|
G#|-------------------------------|-------------------------------|
C#|-------------------------------|-------------------------------|


      E   E   Q    E   E   E   E      E   E   E   E   Q    E   E   
D#|-------------------------------|-------------------------------|
A#|--17--18-----------18--17--18--|-------------------------------|
F#|----------17----L--------------|--15--19--17--19--15----L--19--|
C#|-------------------------------|-------------------------------|
G#|-------------------------------|-------------------------------|
C#|-------------------------------|-------------------------------|


      E   E   Q    E   E   E   E      E   E   E   E   Q    E   E   
D#|-------------------------------|--15--18--17--18--15----L--18--|
A#|-------------------------------|-------------------------------|
F#|--17--19--15----L--19--17--19--|-------------------------------|
C#|-------------------------------|-------------------------------|
G#|-------------------------------|-------------------------------|
C#|-------------------------------|-------------------------------|


      E   E   Q    E   E   E   E      E   E   E   E   Q    E   E   
D#|--17--18--15----L--18--17--18--|-------------------------------|
A#|-------------------------------|------15--13--15-----------15--|
F#|-------------------------------|--12--------------12----L------|
C#|-------------------------------|-------------------------------|
G#|-------------------------------|-------------------------------|
C#|-------------------------------|-------------------------------|


      E   E   Q    E   E   E   E      E   E   E   E   Q    E  E   
D#|-------------------------------|---------------------------6--|
A#|--13--15-----------15--13--15--|--10--15--13--15--10----L-----|
F#|----------12----L--------------|------------------------------|
C#|-------------------------------|------------------------------|
G#|-------------------------------|------------------------------|
C#|-------------------------------|------------------------------|


     S S S S S  S S S S  S S S S  S S S     W                 
D#|--9-6----------------------------7-8-|--10----------------|
A#|------8---------------------8-10-----|--------------------|
F#|--------7-----------------7----------|--------------------|
C#|----------8-------------8------------|--------------------|
G#|------------10-8-7-8-10--------------|--------------------|
C#|-------------------------------------|--------------------|


     H        E  S E  S S S    E  S  S  E   H        S  S  
D#|--L--------8----8----8---|--8--8-----L-----------------|
A#|-------------------------|-------10--L--10-------------|
F#|-------------------------|----------10--10-------------|
C#|-------------------------|------------------------7-10-|
G#|-------------------------|-----------------------------|
C#|-------------------------|-----------------------------|


     H        E  E  S E  S    E.   S S E  E.   S S E  E    
D#|------------------------|------------------------------|
A#|--------------6----8----|--8b---8-6----8b---8-6----8b--|
F#|--7--------L------------|-----------7-----------7------|
C#|------------------------|------------------------------|
G#|------------------------|------------------------------|
C#|------------------------|------------------------------|


                                                             T             
     S E.   H         E  S S    H.            Q        Q     H.            
D#|---------5---------L------|---------------------|----------------------|
A#|--L-8b---8b--------L--8-6-|---------------------|----------------------|
F#|--------------------------|--7------------10----|---L----17------------|
C#|--------------------------|---------------------|----------------------|
G#|--------------------------|---------------------|----------------------|
C#|--------------------------|---------------------|----------------------|


          PM PM PM PM PM             PM PM PM PM PM PM         PM PM PM PM PM     
     Q    E  E  E  E  E  E     E  E  E  E  E  E  E  E     Q    E  E  E  E  E  E   
D#|-------------------------|--------------------------|-------------------------|
A#|-------------------------|--------------------------|-------------------------|
F#|-------------------------|--------------------------|-------------------------|
C#|--7-------------------8--|--L--8--------------------|--5-------------------7--|
G#|--5----5--5--5--5--5--5--|--L--5--5--5--5--5--5--5--|--5----5--5--5--5--5--5--|
C#|-------------------------|--------------------------|-------------------------|


           PM PM PM PM PM PM         PM PM PM PM PM             PM PM PM PM PM PM  
     E  E  E  E  E  E  E  E     Q    E  E  E  E  E  E     E  E  E  E  E  E  E  E   
D#|--------------------------|-------------------------|--------------------------|
A#|--------------------------|-------------------------|--------------------------|
F#|--------------------------|-------------------------|--------------------------|
C#|--L--7--------------------|--7-------------------8--|--L--8--------------------|
G#|--L--5--5--5--5--5--5--5--|--5----5--5--5--5--5--5--|--L--5--5--5--5--5--5--5--|
C#|--------------------------|-------------------------|--------------------------|


                                                       PM PM PM PM PM     
     Q.     Q.     Q       E  Q.     Q    Q       Q    E  E  E  E  E  E   
D#|---------------------|----------------------|-------------------------|
A#|---------------------|----------------------|-------------------------|
F#|---------------------|----------------------|-------------------------|
C#|--5------3------2----|--L--0------2----3----|--7-------------------8--|
G#|--3------3------3----|--L--3------3----3----|--5----5--5--5--5--5--5--|
C#|---------------------|----------------------|-------------------------|


           PM PM PM PM PM PM         PM PM PM PM PM             PM PM PM PM PM PM  
     E  E  E  E  E  E  E  E     Q    E  E  E  E  E  E     E  E  E  E  E  E  E  E   
D#|--------------------------|-------------------------|--------------------------|
A#|--------------------------|-------------------------|--------------------------|
F#|--------------------------|-------------------------|--------------------------|
C#|--L--8--------------------|--5-------------------7--|--L--7--------------------|
G#|--L--5--5--5--5--5--5--5--|--5----5--5--5--5--5--5--|--L--5--5--5--5--5--5--5--|
C#|--------------------------|-------------------------|--------------------------|


          PM PM PM PM PM             PM PM PM PM PM PM                        
     Q    E  E  E  E  E  E     E  E  E  E  E  E  E  E     Q.     Q.     Q     
D#|-------------------------|--------------------------|---------------------|
A#|-------------------------|--------------------------|---------------------|
F#|-------------------------|--------------------------|---------------------|
C#|--7-------------------8--|--L--8--------------------|--5------3------2----|
G#|--5----5--5--5--5--5--5--|--L--5--5--5--5--5--5--5--|--3------3------3----|
C#|-------------------------|--------------------------|---------------------|


     E  Q.     Q    Q       H.           Q       Q    H        Q     
D#|----------------------|--------------------|---------------------|
A#|----------------------|--------------------|---------------------|
F#|----------------------|--------------------|---------------------|
C#|--L--0------2----3----|--1------------1----|--L----1--------L----|
G#|--L--3------3----3----|--1------------1----|--L----1--------L----|
C#|----------------------|--1------------1----|--L----1--------L----|


     E  E  E  E  E  E  E  E     E  E  E  E  E  E  E  E      Q.      Q.      Q     
D#|--------------------------|--------------------------|----------10------------|
A#|--------------------------|--------------------------|--11--------------11----|
F#|--------------------------|--------------------------|------------------------|
C#|--------------------------|--------------------------|------------------------|
G#|--5--6-----3--5-----1--3--|-----0--1-----0--1--0-----|------------------------|
C#|--------------------------|-----------------------3--|------------------------|


     Q     Q     Q     Q        Q.      Q.      Q       Q     Q     Q     Q     
D#|-------------10----------|----------10------------|-------------10----------|
A#|--L----11----------11----|--10--------------10----|--L----10----------10----|
F#|-------------------------|------------------------|-------------------------|
C#|-------------------------|------------------------|-------------------------|
G#|-------------------------|------------------------|-------------------------|
C#|-------------------------|------------------------|-------------------------|


      Q.      Q.      Q       Q     Q     Q     Q        H.            Q     
D#|----------10------------|-------------10----------|----------------------|
A#|------------------------|-------------------------|--10------------10----|
F#|--12--------------12----|--L----12----------12----|----------------------|
C#|------------------------|-------------------------|----------------------|
G#|------------------------|-------------------------|----------------------|
C#|------------------------|-------------------------|----------------------|


     H         H            Q.      Q.      Q       Q     Q     Q     Q     
D#|---------------------|----------10------------|-------------10----------|
A#|--L--------10--------|--11--------------11----|--L----11----------11----|
F#|---------------------|------------------------|-------------------------|
C#|---------------------|------------------------|-------------------------|
G#|---------------------|------------------------|-------------------------|
C#|---------------------|------------------------|-------------------------|


      Q.      Q.      Q       Q     Q     Q     Q        Q.      Q.      Q     
D#|----------10------------|-------------10----------|----------10------------|
A#|--10--------------10----|--L----10----------10----|------------------------|
F#|------------------------|-------------------------|--12--------------12----|
C#|------------------------|-------------------------|------------------------|
G#|------------------------|-------------------------|------------------------|
C#|------------------------|-------------------------|------------------------|


     Q     Q     Q     Q        H.            Q       H         H         
D#|-------------10----------|----------------------|---------------------|
A#|-------------------------|--10------------10----|--L--------10--------|
F#|--L----12----------12----|----------------------|---------------------|
C#|-------------------------|----------------------|---------------------|
G#|-------------------------|----------------------|---------------------|
C#|-------------------------|----------------------|---------------------|


     E   E   E   E  Q    E   E      E   E  Q    E   E   E   E   
D#|-----------------------------|------------------------------|
A#|--8--11--10--11--8----L--11--|--10--11--8----L--11--10--11--|
F#|-----------------------------|------------------------------|
C#|-----------------------------|------------------------------|
G#|-----------------------------|------------------------------|
C#|-----------------------------|------------------------------|


      E   E   E   E   Q    E   E      E   E   Q    E   E   E   E   
D#|-------------------------------|-------------------------------|
A#|------11--10--11-----------11--|--10--11-----------11--10--11--|
F#|--10--------------10----L------|----------10----L--------------|
C#|-------------------------------|-------------------------------|
G#|-------------------------------|-------------------------------|
C#|-------------------------------|-------------------------------|


     E   E   E   E  Q    E   E      E   E  Q    E   E   E   E   
D#|-----------------------------|------------------------------|
A#|--8--11--10--11--8----L--11--|--10--11--8----L--11--10--11--|
F#|-----------------------------|------------------------------|
C#|-----------------------------|------------------------------|
G#|-----------------------------|------------------------------|
C#|-----------------------------|------------------------------|


      E   E   E   E   Q    E   E      E   E   Q    E   E   E   E   
D#|-------------------------------|-------------------------------|
A#|------11--10--11-----------11--|--10--11-----------11--10--11--|
F#|--10--------------10----L------|----------10----L--------------|
C#|-------------------------------|-------------------------------|
G#|-------------------------------|-------------------------------|
C#|-------------------------------|-------------------------------|


     E   E   E   E  Q    E   E      E   E  Q    E   E   E   E   
D#|-----------------------------|------------------------------|
A#|--8--11--10--11--8----L--11--|--10--11--8----L--11--10--11--|
F#|-----------------------------|------------------------------|
C#|-----------------------------|------------------------------|
G#|-----------------------------|------------------------------|
C#|-----------------------------|------------------------------|


      E   E   E   E   Q    E   E      E   E   Q    E   E   E   E   
D#|-------------------------------|-------------------------------|
A#|------11--10--11-----------11--|--10--11-----------11--10--11--|
F#|--10--------------10----L------|----------10----L--------------|
C#|-------------------------------|-------------------------------|
G#|-------------------------------|-------------------------------|
C#|-------------------------------|-------------------------------|


     E   E   E   E  Q    E   E      E   E  Q    E   E   E   E   
D#|-----------------------------|------------------------------|
A#|--8--11--10--11--8----L--11--|--10--11--8----L--11--10--11--|
F#|-----------------------------|------------------------------|
C#|-----------------------------|------------------------------|
G#|-----------------------------|------------------------------|
C#|-----------------------------|------------------------------|


      E   E   E   E   Q    E   E      E   E   Q    E   Q      E   
D#|-------------------------------|------------------------------|
A#|------11--10--11-----------11--|--10--11-----------18b----18--|
F#|--10--------------10----L------|----------10----L-------------|
C#|-------------------------------|------------------------------|
G#|-------------------------------|------------------------------|
C#|-------------------------------|------------------------------|


      W                    H        E   Q      E      H          Q     Q     
D#|---------------------|-------------------------|--17b--------17----------|
A#|--18b----------------|--L--------L--18b----18--|-------------------18----|
F#|---------------------|-------------------------|-------------------------|
C#|---------------------|-------------------------|-------------------------|
G#|---------------------|-------------------------|-------------------------|
C#|---------------------|-------------------------|-------------------------|


     H        E   Q      E      W                   H        E   E    E.   S  
D#|-------------------------|--------------------|---------------------------|
A#|--L--------L--18b----18--|--------------------|---------------------------|
F#|-------------------------|--15----------------|--L--------L--17b--17---15-|
C#|-------------------------|--------------------|---------------------------|
G#|-------------------------|--------------------|---------------------------|
C#|-------------------------|--------------------|---------------------------|


      W                   W                     Q.      Q.      Q     
D#|--------------------|-------------------|-------------------17----|
A#|--------------------|-------------------|-----------15------------|
F#|--17----------------|--L----------------|--/15--------------------|
C#|--------------------|-------------------|-------------------------|
G#|--------------------|-------------------|-------------------------|
C#|--------------------|-------------------|-------------------------|


     Q     H        Q        W                   H         Q      E   E   
D#|--L----15--------L----|--------------------|--------------------------|
A#|----------------------|--18----------------|--L--------18b----18------|
F#|----------------------|--------------------|----------------------15--|
C#|----------------------|--------------------|--------------------------|
G#|----------------------|--------------------|--------------------------|
C#|----------------------|--------------------|--------------------------|


     W                   H        E   E    E.   S     W                 
D#|-------------------|---------------------------|--------------------|
A#|-------------------|---------------------------|--------------------|
F#|--L----------------|--L--------L--17b--17---15-|--17----------------|
C#|-------------------|---------------------------|--------------------|
G#|-------------------|---------------------------|--------------------|
C#|-------------------|---------------------------|--------------------|


     H        E   S  S  E   E      H.            Q       W                 
D#|----------------------------|--17------------15----|--L----------------|
A#|--------------------15--18--|----------------------|-------------------|
F#|--L--------L--15-17---------|----------------------|-------------------|
C#|----------------------------|----------------------|-------------------|
G#|----------------------------|----------------------|-------------------|
C#|----------------------------|----------------------|-------------------|


      Q.      Q.      Q       E   E   H         E   E      Q     E   H        E   
D#|--17------15------20----|--L--17--22--------18--17--|--17----18--15--------L--|
A#|------------------------|---------------------------|-------------------------|
F#|------------------------|---------------------------|-------------------------|
C#|------------------------|---------------------------|-------------------------|
G#|------------------------|---------------------------|-------------------------|
C#|------------------------|---------------------------|-------------------------|


     H        E   E    E.   S     W                   W                 
D#|--L--------L---------------|--------------------|-------------------|
A#|---------------------------|--------------------|-------------------|
F#|--------------17b--17---15-|--17----------------|--L----------------|
C#|---------------------------|--------------------|-------------------|
G#|---------------------------|--------------------|-------------------|
C#|---------------------------|--------------------|-------------------|


      Q.      Q.      Q       H        Q     E   E      Q.      Q.      Q     
D#|------------------------|------------------------|------------------------|
A#|------------------------|------------------------|------------------------|
F#|--14------15------12----|--L--------L----14--15--|--14------15------------|
C#|------------------------|------------------------|------------------15----|
G#|------------------------|------------------------|------------------------|
C#|------------------------|------------------------|------------------------|


     H        Q     Q        Q.      Q.      Q       H        E   E    E.   S  
D#|----------------------|------------------13----|--L--------L---------------|
A#|----------------------|------------------------|---------------------------|
F#|----------------15----|--14------15------------|--------------17b--17---15-|
C#|--L--------L----------|------------------------|---------------------------|
G#|----------------------|------------------------|---------------------------|
C#|----------------------|------------------------|---------------------------|


      W                   W                  
D#|--------------------|-------------------||
A#|--------------------|-------------------||
F#|--17----------------|--L----------------||
C#|--------------------|-------------------||
G#|--------------------|-------------------||
C#|--------------------|-------------------||

Guitar 3

Starts at (00:53)

              E   E   E   Q     E   E   E      E   E   E   Q     E   E   E   
D#|-------|--------------------------------|--------------------------------|
A#|-------|--15----------------------------|--15----------------------------|
F#|-------|--------------------------------|--------------------------------|
C#|-------|------19--17--15----17--19--15--|------19--17--15----17--19--15--|
G#|-------|--------------------------------|--------------------------------|
C#|-------|--------------------------------|--------------------------------|


      E   E   E   Q     E   E   E      E   E   Q      E   E   E   E   
D#|--------------------------------|---------------------------------|
A#|--17----------------------------|---------------------------------|
F#|--------------------------------|---------------------------------|
C#|------17--15--14----15--17--15--|--17--15--17b----17--15------15--|
G#|--------------------------------|-------------------------17------|
C#|--------------------------------|---------------------------------|


      E   E   E   Q     E   E   E      E   E   E   Q     E   E   E   
D#|--------------------------------|--------------------------------|
A#|--15----------------------------|--15----------------------------|
F#|--------------------------------|--------------------------------|
C#|------19--17--15----17--19--15--|------19--17--15----17--19--15--|
G#|--------------------------------|--------------------------------|
C#|--------------------------------|--------------------------------|


      Q.      Q.      Q       E   Q.      Q     Q                             
D#|------------------------|-------------------------|-------|-------|-------|
A#|------------------------|-------------------------|-------|-------|-------|
F#|--17--------------------|-------------------------|-------|-------|-------|
C#|----------19------17----|--L--15------17----19----|-------|-------|-------|
G#|------------------------|-------------------------|-------|-------|-------|
C#|------------------------|-------------------------|-------|-------|-------|

(02:56)

     H         S  S  S  S  S  S  S  S     H        Q      Q     
D#|-----------------------------------|------------------------|
A#|-----------------------------------|------------------------|
F#|-----------------------------14-17-|--19--------L----/19----|
C#|--------------------12-15-17-------|------------------------|
G#|-----------10-12-15----------------|------------------------|
C#|-----------------------------------|------------------------|


                 |---3---|                                                      
  H        Q     E   E   E      H         Q     Q        H        Q    E    E   
----------------------------|-------------------------|------------------------|
----------------------------|-------------------------|-------------------/10--|
--L--------L----19--17------|-------------------------|------------------------|
------------------------19--|--17b--------L----17b----|--L--------L----L-------|
----------------------------|-------------------------|------------------------|
----------------------------|-------------------------|------------------------|


      E   E   E   E   E   E   E   E      E   E   E   E   E   E   E   E   
D#|--13----------12----------13------|------12----------13------13--15--|
A#|------10--10------10--10------10--|--10------10--10------10----------|
F#|----------------------------------|----------------------------------|
C#|----------------------------------|----------------------------------|
G#|----------------------------------|----------------------------------|
C#|----------------------------------|----------------------------------|


                                         |---3---|   |---3---|   
   Q    E   Q     E   Q        H         E   E   E   E   E   E   
--12----L--13----12--13b----|--L--------------------12--15--12--|
----------------------------|-------------------13--------------|
----------------------------|---------------12------------------|
----------------------------|-----------14----------------------|
----------------------------|-----------------------------------|
----------------------------|-----------------------------------|


       H        Q     E    E       W                 
D#|----------------------------|--------------------|
A#|--/15--------L--------------|--------------------|
F#|------------------12b--12b--|---L----------------|
C#|----------------------------|--------------------|
G#|----------------------------|--------------------|
C#|----------------------------|--------------------|


      S  S  S  S  S  S  S  S  S  S  S  S  S  S  S  S  
D#|--------------------------------------------------|
A#|--18-15-17-18-17-15-18-15-17-18-17-15-18-15-17-18-|
F#|--------------------------------------------------|
C#|--------------------------------------------------|
G#|--------------------------------------------------|
C#|--------------------------------------------------|


      S  S  S  S  S  S  S  S  S  S  S  S  S  S  S  S  
D#|--------------------------------------------------|
A#|--17-15-18-15-17-18-17-15-18-15-17-18-17-15-18-15-|
F#|--------------------------------------------------|
C#|--------------------------------------------------|
G#|--------------------------------------------------|
C#|--------------------------------------------------|


      S  S  S  S  S  S  S  S  S  S  S  S  S  S  S  S  
D#|--17-18-17----------------------------------------|
A#|-----------18-------17-18-17----------------------|
F#|--------------19-17----------17-------17-19-17----|
C#|--------------------------------19-17----------17-|
G#|--------------------------------------------------|
C#|--------------------------------------------------|


                              T           T           
      S  S  S  S  S  S  S  S  S  S  S  S  S  S  S  S  
D#|--------------------------------------------------|
A#|--------------------------------------------------|
F#|--------------------------14-12-10-12-17-12-10-12-|
C#|--------14-17-14----------------------------------|
G#|--19-17----------17-15-17-------------------------|
C#|--------------------------------------------------|


   T        T        T        T              T        T  
                                       |--3--|  |--3--|  
   S  S  S  S  S  S  S  S  S  S  S  S  S  S  S  S  S  S  
--------------------------------------12-13-20-12-13-20-|
--------------------18----------------------------------|
--19-12-10-14-12-10----12-10-14-12-10-------------------|
--------------------------------------------------------|
--------------------------------------------------------|
--------------------------------------------------------|


         T        T        T        T                          
   |--3--|  |--3--|  |--3--|  |--3--|                          
   S  S  S  S  S  S  S  S  S  S  S  S  S  S  S  S  S  S  S  S  
--12-13-------------------------------------------------------|
--------20-13-15-20-13-15-------------------------------------|
--------------------------19-14-15-19-14-15-17-15-14----14-15-|
-----------------------------------------------------17-------|
--------------------------------------------------------------|
--------------------------------------------------------------|


      W                    W                                                 
D#|---------------------|-------------------|-------|-------|-------|-------|
A#|---------------------|-------------------|-------|-------|-------|-------|
F#|--17b----------------|--L----------------|-------|-------|-------|-------|
C#|---------------------|-------------------|-------|-------|-------|-------|
G#|---------------------|-------------------|-------|-------|-------|-------|
C#|---------------------|-------------------|-------|-------|-------|-------|


D#|-------|-------|-------|-------|-------|-------|-------|-------|-------|-------|
A#|-------|-------|-------|-------|-------|-------|-------|-------|-------|-------|
F#|-------|-------|-------|-------|-------|-------|-------|-------|-------|-------|
C#|-------|-------|-------|-------|-------|-------|-------|-------|-------|-------|
G#|-------|-------|-------|-------|-------|-------|-------|-------|-------|-------|
C#|-------|-------|-------|-------|-------|-------|-------|-------|-------|-------|


      H.            Q        H         Q    E   S  S     H.            Q     
D#|--13------------13----|--15--------17----L--15-13-|--15------------15----|
A#|----------------------|---------------------------|----------------------|
F#|----------------------|---------------------------|----------------------|
C#|----------------------|---------------------------|----------------------|
G#|----------------------|---------------------------|----------------------|
C#|----------------------|---------------------------|----------------------|


      H         H            E   E   E   E   Q    E   E   
D#|--17--------18--------|--13--17--15--17--13----L--17--|
A#|----------------------|-------------------------------|
F#|----------------------|-------------------------------|
C#|----------------------|-------------------------------|
G#|----------------------|-------------------------------|
C#|----------------------|-------------------------------|


      E   E   Q    E   E   E   E      E   E   E   E   Q    E   E   
D#|--15--17--13----L--17--15--17--|------15--13--15-----------15--|
A#|-------------------------------|--15--------------15----L------|
F#|-------------------------------|-------------------------------|
C#|-------------------------------|-------------------------------|
G#|-------------------------------|-------------------------------|
C#|-------------------------------|-------------------------------|


      E   E   Q    E   E   E   E      H.            Q     
D#|--13--15-----------15--13--15--|--13------------13----|
A#|----------15----L--------------|----------------------|
F#|-------------------------------|----------------------|
C#|-------------------------------|----------------------|
G#|-------------------------------|----------------------|
C#|-------------------------------|----------------------|


      H         Q    E   S  S     H.            Q        H         H         
D#|--15--------17----L--15-13-|--15------------15----|--17--------18--------|
A#|---------------------------|----------------------|----------------------|
F#|---------------------------|----------------------|----------------------|
C#|---------------------------|----------------------|----------------------|
G#|---------------------------|----------------------|----------------------|
C#|---------------------------|----------------------|----------------------|


      E   E   E   E   Q    E   E      E   E   Q    E   E   E   E   
D#|--13--17--15--17--13----L--17--|--15--17--13----L--17--15--17--|
A#|-------------------------------|-------------------------------|
F#|-------------------------------|-------------------------------|
C#|-------------------------------|-------------------------------|
G#|-------------------------------|-------------------------------|
C#|-------------------------------|-------------------------------|


      E   E   E   E   Q    E   E      E   E   Q    E   E   E   E   
D#|------15--13--15-----------15--|--13--15-----------15--13--15--|
A#|--15--------------15----L------|----------15----L--------------|
F#|-------------------------------|-------------------------------|
C#|-------------------------------|-------------------------------|
G#|-------------------------------|-------------------------------|
C#|-------------------------------|-------------------------------|


      E   E   E   E   Q    E   E      E   E   Q    E   E   E   E   
D#|-------------------------------|-------------------------------|
A#|--15--18--17--18--15----L--18--|--17--18--15----L--18--17--18--|
F#|-------------------------------|-------------------------------|
C#|-------------------------------|-------------------------------|
G#|-------------------------------|-------------------------------|
C#|-------------------------------|-------------------------------|


      E   E   E   E   Q    E   E      E   E   Q    E   E   E   E   
D#|------15--13--15-----------15--|--13--15-----------15--13--15--|
A#|--15--------------15----L------|----------15----L--------------|
F#|-------------------------------|-------------------------------|
C#|-------------------------------|-------------------------------|
G#|-------------------------------|-------------------------------|
C#|-------------------------------|-------------------------------|


      E   E   E   E   Q    E   E      E   E   Q    E   E   E   E   
D#|------13--12--13-----------13--|--12--13-----------13--12--13--|
A#|--13--------------13----L------|----------13----L--------------|
F#|-------------------------------|-------------------------------|
C#|-------------------------------|-------------------------------|
G#|-------------------------------|-------------------------------|
C#|-------------------------------|-------------------------------|


      E   E   E   E   Q    E   E   
D#|------13--12--13-----------13--|
A#|--14--------------14----L------|
F#|-------------------------------|
C#|-------------------------------|
G#|-------------------------------|
C#|-------------------------------|


      S  S  S  S  S  S  S  S  S  S  S  S  S  S  S  S     W                 
D#|--15-12-------------------------------------12-13-|--13----------------|
A#|--------14----------------------------14-15-------|--------------------|
F#|-----------12----------------------12-------------|--------------------|
C#|--------------14----------------14----------------|--------------------|
G#|-----------------16-14-12-14-16-------------------|--------------------|
C#|--------------------------------------------------|--------------------|

(05:12)

                                      E   E   E   E   Q    E   E   
D#|-------|-------|-------|-------|-------------------------------|
A#|-------|-------|-------|-------|--11--15--13--15--11----L--15--|
F#|-------|-------|-------|-------|-------------------------------|
C#|-------|-------|-------|-------|-------------------------------|
G#|-------|-------|-------|-------|-------------------------------|
C#|-------|-------|-------|-------|-------------------------------|


      E   E   Q    E   E   E   E      E   E   E   E   Q    E   E   
D#|-------------------------------|-------------------------------|
A#|--13--15--11----L--15--13--15--|------15--13--15-----------15--|
F#|-------------------------------|--14--------------14----L------|
C#|-------------------------------|-------------------------------|
G#|-------------------------------|-------------------------------|
C#|-------------------------------|-------------------------------|


      E   E   Q    E   E   E   E      E   E   E   E   Q    E   E   
D#|-------------------------------|-------------------------------|
A#|--13--15-----------15--13--15--|--11--15--13--15--11----L--15--|
F#|----------14----L--------------|-------------------------------|
C#|-------------------------------|-------------------------------|
G#|-------------------------------|-------------------------------|
C#|-------------------------------|-------------------------------|


      E   E   Q    E   E   E   E      E   E   E   E   Q    E   E   
D#|-------------------------------|-------------------------------|
A#|--13--15--11----L--15--13--15--|------15--13--15-----------15--|
F#|-------------------------------|--14--------------14----L------|
C#|-------------------------------|-------------------------------|
G#|-------------------------------|-------------------------------|
C#|-------------------------------|-------------------------------|


      E   E   Q    E   E   E   E      E   E   E   E   Q    E   E   
D#|-------------------------------|-------------------------------|
A#|--13--15-----------15--13--15--|--11--15--13--15--11----L--15--|
F#|----------14----L--------------|-------------------------------|
C#|-------------------------------|-------------------------------|
G#|-------------------------------|-------------------------------|
C#|-------------------------------|-------------------------------|


      E   E   Q    E   E   E   E      E   E   E   E   Q    E   E   
D#|-------------------------------|-------------------------------|
A#|--13--15--11----L--15--13--15--|------15--13--15-----------15--|
F#|-------------------------------|--14--------------14----L------|
C#|-------------------------------|-------------------------------|
G#|-------------------------------|-------------------------------|
C#|-------------------------------|-------------------------------|


      E   E   Q    E   E   E   E      E   E   E   E   Q    E   E   
D#|-------------------------------|-------------------------------|
A#|--13--15-----------15--13--15--|--11--15--13--15--11----L--15--|
F#|----------14----L--------------|-------------------------------|
C#|-------------------------------|-------------------------------|
G#|-------------------------------|-------------------------------|
C#|-------------------------------|-------------------------------|


      E   E   Q    E   E   E   E      E   E   E   E   Q    E   E   
D#|-------------------------------|-------------------------------|
A#|--13--15--11----L--15--13--15--|------15--13--15-----------15--|
F#|-------------------------------|--14--------------14----L------|
C#|-------------------------------|-------------------------------|
G#|-------------------------------|-------------------------------|
C#|-------------------------------|-------------------------------|


      E   E   Q    E   E   E   E      E   E   E   E   Q    E   E   
D#|-------------------------------|-------------------------------|
A#|--13--15-----------15--13--15--|--11--15--13--15--11----L--15--|
F#|----------14----L--------------|-------------------------------|
C#|-------------------------------|-------------------------------|
G#|-------------------------------|-------------------------------|
C#|-------------------------------|-------------------------------|


      E   E   Q    E   E   E   E      E   E   E   E   Q    E   E   
D#|-------------------------------|-------------------------------|
A#|--13--15--11----L--15--13--15--|------15--13--15-----------15--|
F#|-------------------------------|--14--------------14----L------|
C#|-------------------------------|-------------------------------|
G#|-------------------------------|-------------------------------|
C#|-------------------------------|-------------------------------|


      E   E   Q    E   E   E   E      E   E   E   E   Q    E   E   
D#|-------------------------------|-------------------------------|
A#|--13--15-----------15--13--15--|--11--15--13--15--11----L--15--|
F#|----------14----L--------------|-------------------------------|
C#|-------------------------------|-------------------------------|
G#|-------------------------------|-------------------------------|
C#|-------------------------------|-------------------------------|


      E   E   Q    E   E   E   E      E   E   E   E   Q    E   E   
D#|-------------------------------|-------------------------------|
A#|--13--15--11----L--15--13--15--|------15--13--15-----------15--|
F#|-------------------------------|--14--------------14----L------|
C#|-------------------------------|-------------------------------|
G#|-------------------------------|-------------------------------|
C#|-------------------------------|-------------------------------|


      E   E   Q    E   E   E   E      E   E   E   E   Q    E   E   
D#|-------------------------------|-------------------------------|
A#|--13--15-----------15--13--15--|--11--15--13--15--11----L--15--|
F#|----------14----L--------------|-------------------------------|
C#|-------------------------------|-------------------------------|
G#|-------------------------------|-------------------------------|
C#|-------------------------------|-------------------------------|


      E   E   Q    E   E   E   E      E   E   E   E   Q    E   E   
D#|-------------------------------|-------------------------------|
A#|--13--15--11----L--15--13--15--|------15--13--15-----------15--|
F#|-------------------------------|--14--------------14----L------|
C#|-------------------------------|-------------------------------|
G#|-------------------------------|-------------------------------|
C#|-------------------------------|-------------------------------|


      E   E   Q    E   E   E   E      E   E   E   E   Q    E   E   
D#|-------------------------------|-------------------------------|
A#|--13--15-----------15--13--15--|--11--15--13--15--11----L--15--|
F#|----------14----L--------------|-------------------------------|
C#|-------------------------------|-------------------------------|
G#|-------------------------------|-------------------------------|
C#|-------------------------------|-------------------------------|


      E   E   Q    E   E   E   E      E   E   E   E   Q    E   E   
D#|-------------------------------|-------------------------------|
A#|--13--15--11----L--15--13--15--|------15--13--15-----------15--|
F#|-------------------------------|--14--------------14----L------|
C#|-------------------------------|-------------------------------|
G#|-------------------------------|-------------------------------|
C#|-------------------------------|-------------------------------|


      E   E   Q    E   E   E   E      E   E   E   E   Q    E   E   
D#|-------------------------------|-------------------------------|
A#|--13--15-----------15--13--15--|--11--15--13--15--11----L--15--|
F#|----------14----L--------------|-------------------------------|
C#|-------------------------------|-------------------------------|
G#|-------------------------------|-------------------------------|
C#|-------------------------------|-------------------------------|


      E   E   Q    E   E   E   E      E   E   E   E   Q    E   E   
D#|-------------------------------|-------------------------------|
A#|--13--15--11----L--15--13--15--|------15--13--15-----------15--|
F#|-------------------------------|--14--------------14----L------|
C#|-------------------------------|-------------------------------|
G#|-------------------------------|-------------------------------|
C#|-------------------------------|-------------------------------|


      E   E   Q    E   E   E   E      E   E   E   E   Q    E   E   
D#|-------------------------------|-------------------------------|
A#|--13--15-----------15--13--15--|--11--15--13--15--11----L--15--|
F#|----------14----L--------------|-------------------------------|
C#|-------------------------------|-------------------------------|
G#|-------------------------------|-------------------------------|
C#|-------------------------------|-------------------------------|


      E   E   Q    E   E   E   E      E   E   E   E   Q    E   E   
D#|-------------------------------|-------------------------------|
A#|--13--15--11----L--15--13--15--|------15--13--15-----------15--|
F#|-------------------------------|--14--------------14----L------|
C#|-------------------------------|-------------------------------|
G#|-------------------------------|-------------------------------|
C#|-------------------------------|-------------------------------|


      E   E   Q    E   E   E   E      E   E   E   E   Q    E   E   
D#|-------------------------------|-------------------------------|
A#|--13--15-----------15--13--15--|--11--15--13--15--11----L--15--|
F#|----------14----L--------------|-------------------------------|
C#|-------------------------------|-------------------------------|
G#|-------------------------------|-------------------------------|
C#|-------------------------------|-------------------------------|


      E   E   Q    E   E   E   E      E   E   E   E   Q    E   E   
D#|-------------------------------|-------------------------------|
A#|--13--15--11----L--15--13--15--|------15--13--15-----------15--|
F#|-------------------------------|--14--------------14----L------|
C#|-------------------------------|-------------------------------|
G#|-------------------------------|-------------------------------|
C#|-------------------------------|-------------------------------|


      E   E   Q    E   E   E   E      E   E   E   E   Q    E   E   
D#|-------------------------------|-------------------------------|
A#|--13--15-----------15--13--15--|--11--15--13--15--11----L--15--|
F#|----------14----L--------------|-------------------------------|
C#|-------------------------------|-------------------------------|
G#|-------------------------------|-------------------------------|
C#|-------------------------------|-------------------------------|


      E   E   Q    E   E   E   E      E   E   E   E   Q    E   E   
D#|-------------------------------|-------------------------------|
A#|--13--15--11----L--15--13--15--|------15--13--15-----------15--|
F#|-------------------------------|--14--------------14----L------|
C#|-------------------------------|-------------------------------|
G#|-------------------------------|-------------------------------|
C#|-------------------------------|-------------------------------|


      E   E   Q    E   E   E   E    
D#|-------------------------------||
A#|--13--15-----------15--13--15--||
F#|----------14----L--------------||
C#|-------------------------------||
G#|-------------------------------||
C#|-------------------------------||

That is all! I hope this helped, and be sure to check out my cover if you are
having problems with the tab. Thanks, oh and one last thing... ROCK OUT!!!!


Duration Legend
---------------
W - whole
H - half
Q - quarter
E - 8th
S - 16th
T - 32nd
X - 64th
. - note dotted
|-n-|  - n-tuplets


************************************

| x  Dead note
| b  Bend
| /  Slide up
| ~  Vibrato
| L  Tied note

************************************
Suggest correction
comments
print report bad tab
8 comments total. Showing first comments.
+2 reply
Athalon 10 wrote on August 28 2013, 12:56 am

Awesome tab! Could be even more better with some section identifiers (Verse, Chorus, etc.). Really easy to get lost moving through this tab.

+2 reply
dkm817 7,179 wrote on August 28 2013, 08:13 pm

Sorry about that. I've really got to start doing that again. haha but thanks!

+2 reply
zman32 10 wrote on August 31 2013, 02:32 pm

The layout of this tab is awful!!! I cant find anything. Agreed with Athalon, put identification in it. Also, chop it up. Put like [Verse x4] and give the riff. Fun song. Not a bad tab. Just edit some stuff.

guest
You may want to rate the tab now too:
select rating
Please do not post tabs as comments. Select "correction" instead!