Oops, an error
Loading. Please wait.

Creating God tab

version 1
version 1

Whole song

  • This is my first time tabbing out a song, but it s... Show more

Interactive

5,695 views 24 this week
2 commentsread comments
1 2 3 4 5
x 7
add to favorites
×
Save as Personal and add changes to this tab that will be seen only by you. Learn more ›
×
You can save this tab as Personal to edit and correct it or add notes. All changes will be seen only by you. Learn more »
launch autoscroll
font size
0
reset
how to read this tab
guitar tuner
edit
Autoscroll
slow
fast
+/-
esc
set tempo
stop
About this tab version
This is my first time tabbing out a song, but it should be somewhat correct. Please feel free to email me, my email is right before the tab starts, if you have any corrections or just comment your correction. Was this info helpful? Yes No
************************************

If you have corrections PLEASE let me know and comment or email me magmarock101@gmail.com
 
[Intro] (Play until verse)
e|---------------------------------------------------------------------------|
B|---------------------------------------------------------------------------|
G|---------------------------------------------------------------------------|
D|-0-2-3-5-------------------------------------------------------------------|
A|-0-2-3-5-------------------------------------------------------------------|
D|-0-2-3-5-------------------------------------------------------------------|


[Verse] 
                                      x2                                                        x2
e|--------------------------------------|--------------------------------------------------------|
B|--------------------------------------|--------------------------------------------------------|
G|--------------------------------------|--------------------------------------------------------|
D|--------------------------------------|--------------------------------------------------------|
A|-0-0-0--------------5-----0-0-0-------|-0--0--0--0-------------0--0--0----7p0-6-3~ ------------|
D|-0-0-0-------0-3-6----5b--0-0-0-------|-0000000000-0-3-6-12-5b-0000000000-7p0-6-3~ ------------|
   PMPMPM      PMPM  PM     PMPMPM         PM PM PM               PM PM PM



[Pre-Chorus]

e|---------------------------------------------------------------------------|
B|---------------------------------------------------------------------------|
G|---------------------------------------------------------------------------|
D|---------------------------------------------------------------------------|
A|-------------------------------------0-------------------------------------|
D|-3530-3530-3530-3530-3530--3530-3530-0-------------------------------------|
   PMPMPMPMPMPMPMPMPMPMPMPMPMPMPMPMPM    

e|---------------------------------------------------------------------------|
B|---------------------------------------------------------------------------|
G|---------------------------------------------------------------------------|
D|---------------------------------------------------------------------------|
A|---------------------------------------------------------------------------|
D|-3530-3530-3530-3530-3530-3530-35b------------------------------------------|
                                 gradually bend that 5 up

[Chorus] Listen for how the and when the octaves are played

e|---------------------------------------------------------------------------|
B|---------------------------------------------------------------------------|
G|-7-11-14-9-5-11-14-15-9-10-17----------------------------------------------|
D|-x-x--x--x-x-x--x--x--x-x--x-----------------------------------------------|
A|-5-9--12-7-7-9--12-13-7-8--15----------------------------------------------|
D|---------------------------------------------------------------------------|x2
                          Strum the last two according to the song

[Verse]
[Pre-Chorus]
[Chorus]

After Chorus] Play this after the second chorus
e|---------------------------------------------------------------------------|
B|---------------------------------------------------------------------------|
G|-5/4-9---------------------------------------------------------------------|
D|-x-x-x---------------------------------------------------------------------|
A|-7/6-7---------------------------------------------------------------------|
D|---------------------------------------------------------------------------|x4

[Bridge] First part of the bridge is the intro verse, then at the end of the section you'll play an open D
string. after that, play this. Listen for the timing. Im not sure if this is correct, but that's what it 
sounds like

e|---------------------------------------------------------------------------|Play this a few times and then
B|---------------------------------------------------------------------------|You'll hear it go faster. 
G|---------------------------------------------------------------------------|
D|---------------------------------------------------------------------------|
A|------------------0--------------------------------------------------------|
D|--3-2-3-5-3-2-3-2-0--------------------------------------------------------|
    PMPMPMPMPMPMPMPM

After you hear it, play the same thing but tremolo pick open d inbetween each 32353232

There's one part of the bridge im not sure of, i'll figure it out later. But after the solo, play

[Verse]
[Pre-chorus]

[after chorus]

You can end the song on either these two chords
e|------------------------------------|--------------------------------------|
B|------------------------------------|--------------------------------------|
G|------------------------------------|--------------------------------------|
D|-0----------------------------------|-5------------------------------------|
A|-0----------------------------------|-x------------------------------------|
D|-0----------------------------------|-7------------------------------------|

************************************
         
| x   Dead note
| g   Grace note
| (n) Ghost note
| h   Hammer-on
| p   Pull-off
| r   Release
| >   Accented note
| t   Tapping
| b   Bend
| br  Bend release
| pb  Pre-bend
| pbr Pre-bend release
| /   Slide up
| \   Slide down
| ~   Vibrato
| s   Slap
| P   Pop
| PM  Palm mute
| TR  Trill
| N   Tremolo
 

            
            
Suggest correction
Creating personal tab
Creating personal tab
You can edit any tab online and save it as your Personal.

You can edit, replace or remove any tab part or add personal notes – all changes will be seen only by you.

Personal tabs can be accessed anytime from any device, even offline.
Learn more »
comments
print report bad tab
2 comments total.
0 reply
RealUnrealRob 30 Jun 11, 2017 08:20 PM, edited on June 12 2017, 12:25 am

The lead lines from the intro are missing but I haven't worked that out yet.The 5 on the lowest string in the verse should be a 3 that gets bent pretty heavily. Ending of the second part of the verse is a bit off. There's also a different final ending in the verse just before the pre-chorus, hitting the open lowest three strings (D5). I didn't tab that here.[Verse]

e|--------------------------------------|--------------------------------------------------------|B|--------------------------------------|--------------------------------------------------------|G|--------------------------------------|--------------------------------------------------------|D|--------------------------------------|--------------------------------------------------------|A|-0-0-0--------------5-----0-0-0-------|-0--0--0--0--------5----0--0--0----7-0-5-3~ ------------|D|-0-0-0-------0-3-6----3b--0-0-0-------|-0000000000-0-3-6----3b-0000000000-7-0-5-3~ ------------|

[Chorus]
e|------------------------------------------------------------------------------|B|------------------------------------------------------------------------------|G|-7----7--6----7--9---10--7----7--6----7--9---10----7-----9----10----12--------|
D|-x----x--x----x--x----x--x----x--x----x--x----x----x-x8--x-x8--x-x8--x-x8-----|A|-5----5--4----5--7----8--5----5--4----5--7----8----5-----7-----8----10--------|D|------------------------------------------------------------------------------|x2
And a harmony:
e|------------------------------------------------------------------------------|B|------------------------------------------------------------------------------|G|-7----7--6----7--9---10--7----7--6----7--9---10---10----12----14----17--------|
D|-x----x--x----x--x----x--x----x--x----x--x----x----x-x8--x-x8--x-x8--x-x8-----|A|-5----5--4----5--7----8--5----5--4----5--7----8----8----10----12----15--------|D|------------------------------------------------------------------------------|x2

0 reply
RealUnrealRob 30 Jun 11, 2017 08:26 PM

The lead lines from the intro are missing but I haven't worked that out yet.The 5 on the lowest string in the verse should be a 3 that gets bent pretty heavily. Ending of the second part of the verse is a bit off. There's also a different final ending in the verse just before the pre-chorus, hitting the open lowest three strings (D5). I didn't tab that here.[Verse]

e|--------------------------------------|--------------------------------------------------------|
B|--------------------------------------|--------------------------------------------------------|
G|--------------------------------------|--------------------------------------------------------|
D|--------------------------------------|--------------------------------------------------------|
A|-0-0-0--------------5-----0-0-0-------|-0--0--0--0--------5----0--0--0----7-0-5-3~ ------------|
D|-0-0-0-------0-3-6----3b--0-0-0-------|-0000000000-0-3-6----3b-0000000000-7-0-5-3~ ------------|

[Chorus]
e|------------------------------------------------------------------------------|
B|------------------------------------------------------------------------------|
G|-7----7--6----7--9---10--7----7--6----7--9---10----7-----9----10----12--------|
D|-x----x--x----x--x----x--x----x--x----x--x----x----x-x8--x-x8--x-x8--x-x8-----|
A|-5----5--4----5--7----8--5----5--4----5--7----8----5-----7-----8----10--------|
D|------------------------------------------------------------------------------|x2
And a harmony:
e|------------------------------------------------------------------------------|
B|------------------------------------------------------------------------------|
G|-7----7--6----7--9---10--7----7--6----7--9---10---10----12----14----17--------|
D|-x----x--x----x--x----x--x----x--x----x--x----x----x-x8--x-x8--x-x8--x-x8-----|
A|-5----5--4----5--7----8--5----5--4----5--7----8----8----10----12----15--------|
D|------------------------------------------------------------------------------|x2

guest
You may want to rate the tab now too:
select rating
Wanna post a correction for this tab? Suggest correction