Oops, an error
Loading. Please wait.

Crimson Day intro tab

version 1
version 1

Intro

Whole song

35,149 views 114 this week
2 commentsread comments
1 2 3 4 5
x 30
add to favorites
×
Save as Personal and add changes to this tab that will be seen only by you. Learn more ›
×
You can save this tab as Personal to edit and correct it or add notes. All changes will be seen only by you. Learn more »
launch autoscroll
font size
0
reset
how to read this tab
guitar tuner
edit
Autoscroll
slow
fast
+/-
esc
set tempo
stop
Author
-------------------------------------------------------------------------------
                             Crimson Day - Avenged Sevenfold
-------------------------------------------------------------------------------
Tuning: Standard
Chords: Em D G C Am D Em

[Intro]
e|---------------------------------------------------------------------------------|
B|-------------3-------3-------5------------5-----------5---------------3-------5--|
G|-----------2---2---------------5--------5---5-----------7-----------4-------4----|
D|-----5---4---------5---5---5-----5------------5-----5-----5-----2-5-----2-5------|
A|---7---7-----------------3---------3--0---------7-7---------7--------------------|
E|-0---------------3--------------------------------------------0------------------|

            
            
Suggest correction
Creating personal tab
Creating personal tab
You can edit any tab online and save it as your Personal.

You can edit, replace or remove any tab part or add personal notes – all changes will be seen only by you.

Personal tabs can be accessed anytime from any device, even offline.
Learn more »
comments
print report bad tab
2 comments total.
0 reply
Mars Sevenfold 241 Nov 22, 2013 01:12 AM

You also can play in Drop D like this:

e|------------------------------------------------------0-------------------------0-|
B|-------------3-------3-------5------------5-------------3--------------0-------0--|
G|-----------2---2---------------5--------5---5-------------0----------0-------0----|
D|---2-5-2-4---------5---5---5-----5------------5-----5--------------4-------4------|
A|-------------------------3---------3--0---------7-7---------2----2----------------|
D|-2---------------5---------------------------------------------2------------------|

0 reply
theypeewithth 10 Aug 03, 2016 10:01 AM

There is a much easier and more convenient way to play it which sounds better in my opinion. The end of the riff is tabbed weirdly here.

guest
You may want to rate the tab now too:
select rating
Wanna post a correction for this tab? Suggest correction