Oops, an error
Loading. Please wait.

Crimson Day solo tab

version 1
version 1

Solo

Whole song

9,450 views 15 this week
2 commentsread comments
1 2 3 4 5
x 4
add to favorites
×
Save as Personal and add changes to this tab that will be seen only by you. Learn more ›
×
You can save this tab as Personal to edit and correct it or add notes. All changes will be seen only by you. Learn more »
launch autoscroll
font size
0
reset
how to read this tab
guitar tuner
edit
Autoscroll
slow
fast
+/-
esc
set tempo
stop
Author
Difficulty
Crimson Day by Avenged Sevenfold Tab

My First tab, please take it easy =]
PS: I couldn't tab the starting of the solo because it's too fast, so it starts at
the bending time.


e|-------------------------------------------------------|
B|-19b-19b--19----17/15-17/19--19--17-----15--15h17------|
G|-------------------------------------------------------|
D|-------------------------------------------------------|
A|-------------------------------------------------------|
E|-------------------------------------------------------|


e|-------------------------------------------------------|
B|--17/13-13/17-17--17/15-15--13-13-12-12----------------|
G|-----------------------------------------14-14b--------| (not sure)
D|-------------------------------------------------------|
A|-------------------------------------------------------|
E|-------------------------------------------------------|


e|---------------------------|---------------------------|
B|---------------------------|15---------15---------15---|
G|--14-14b16-(hold it)-------|----14b16------14b16-------|
D|---------------------------|---------------------------|
A|---------------------------|---------------------------|
E|---------------------------|---------------------------|


e|-------------------------------------------------------|
B|-------------------------------------------------------|
G|--16r14p12---------------------------------------------|
D|---------------14/<------------------------------------|
A|-------------------------------------------------------|
E|-------------------------------------------------------|


e|-------------------------------------------------------|
B|----------------------------------15-13---12h13p12-----|
G|-----------------12--11--12--14------------------------|
D|-9--10--12--14-----------------------------------------|
A|-------------------------------------------------------|
E|-------------------------------------------------------|


e|-----------14--19--17--15------------------------------|
B|-------15------------------17--------------------------|
G|----16-------------------------------------------------|
D|-17----------------------------------------------------|
A|-------------------------------------------------------|
E|-------------------------------------------------------|


e|-------------------------------------------------------|
B|--15-15--13-13--12-12----------------------------------|
G|-----------------------14-14--12--14b16 (hold)---------|
D|-------------------------------------------------------|
A|-------------------------------------------------------|


e|------------------------------------------------------|
B|15---------15---------15------------------------------|
G|----14b16------14b16--------16r14p12------------------|
D|---------------------------------------14/<-----------|
A|------------------------------------------------------|
E|------------------------------------------------------|


Please rate, comment and help me fix wrong notes, thank you!

            
            
Suggest correction
Creating personal tab
Creating personal tab
You can edit any tab online and save it as your Personal.

You can edit, replace or remove any tab part or add personal notes – all changes will be seen only by you.

Personal tabs can be accessed anytime from any device, even offline.
Learn more »
comments
print report bad tab
2 comments total.
+1 reply
HELKE 10 Nov 30, 2013 01:27 PM

Correction 1 (first bar)
e|-------------------------------------------------------|
B|-19b-19b--19----17/15-17/19--20--17-----15--15h17------|
G|-------------------------------------------------------|
D|-------------------------------------------------------|
A|-------------------------------------------------------|
E|-------------------------------------------------------|
Correction 2 (second bar)
e|-------------------------------------------------------|
B|--17/12-12/15-15/13-13/12-12/10-10---------------------|
G|--------------------------------------12-14-14b--------|
D|-------------------------------------------------------|
A|-------------------------------------------------------|
E|-------------------------------------------------------|
Correction 3 (second last bar)
e|-------------------------------------------------------|
B|--------12-15--13-13-12-12-----------------------------|
G|-----12--------------------14-14--12--14b16 (hold)-----|
D|--14---------------------------------------------------|
A|-------------------------------------------------------|
E|-------------------------------------------------------|
^Not 100% sure about the sweep thing in the beginning of this bar. Hopefully, the rest of it is accurate now. (atleast more accurate)

0 reply
Robika 10 Dec 03, 2013 03:39 AM

e|-------------------------------12-14-15----------------|
B|----------------------12-14-15-------------------------|
G|------------12-14-16-----------------------------------|
D|---12-14-16--------------------------------------------|
A|-------------------------------------------------------|
E|-------------------------------------------------------|
I think this is the start.

guest
You may want to rate the tab now too:
select rating
Wanna post a correction for this tab? Suggest correction