Oops, an error
Loading. Please wait.

Crimson Day Tab

version 1
version 1

Whole song

79,849 views 111 this week
12 commentsread comments
1 2 3 4 5
x 16
add to favorites
launch autoscroll
font size
0
reset
how to read this tab
guitar tuner
Autoscroll
slow
fast
+/-
esc
set tempo
stop
Help us to improve Ultimate-Guitar.com Take our survey!
×
Author
Difficulty
intermediate
----------------------------------------------------------------------------
                              Crimson Day
                           Avenged Sevenfold
----------------------------------------------------------------------------

A nice, soft song, by Avenged Sevenfold. What more could you ask for? Enjoy!

Username: dkm817 (same on X box live)
Youtube Cover: http://www.youtube.com/watch?v=gWwNrhqNFD4
Email: guitardrums@rockfan.com

Guitar 1 Rhythmic (E A D G B E)
Guitar 2 Lead     (E A D G B E)

NOTE: This was exported off of guitar pro.


[Guitar 1]

Starts at (00:55)

                                  PM PM                       
                    Q    Q    Q    E  E     H        H         
e|-------|-------|-----------------------|--------------------|
B|-------|-------|-----------------------|--------------------|
G|-------|-------|-----------------------|--------------------|
D|-------|-------|-----------------2--2--|--2--------2--------|
A|-------|-------|-----------------2--2--|--2--------2--------|
E|-------|-------|-----------------0--0--|--0--------2--------|


    H        Q    Q       H        Q    E  E     E  E  Q    Q    E  E   
e|---------------------|----------------------|------------------------|
B|---------------------|----------------------|------------------------|
G|-----------2----4----|--5--------5----5--5--|--5--5--5----5----5--5--|
D|--5--------2----4----|--5--------5----5--5--|--5--5--5----5----5--5--|
A|--5--------0----2----|--3--------3----3--3--|--3--3--3----3----3--3--|
E|--3------------------|----------------------|------------------------|


    H        Q    E  E     E  E  Q    Q    E  E     H        Q    E  E   
e|----------------------|------------------------|----------------------|
B|----------------------|------------------------|----------------------|
G|----------------------|------------------------|--5--------5----5--5--|
D|--5--------5----5--5--|--5--5--5----5----5--5--|--5--------5----5--5--|
A|--3--------3----3--5--|--5--5--5----5----5--5--|--3--------3----3--3--|
E|--3--------3----3--3--|--3--3--3----3----3--3--|----------------------|


                                                                    PM PM  
    E  E  Q    Q    E  E     H        Q    E  E     E  E  Q    Q    E  E   
e|------------------------|----------------------|------------------------|
B|------------------------|----------------------|------------------------|
G|--5--5--5----5----5--5--|----------------------|------------------------|
D|--5--5--5----5----5--5--|--5--------5----5--5--|--5--5--5----5----5--5--|
A|--3--3--3----3----3--3--|--3--------3----3--5--|--5--5--5----5----5--5--|
E|------------------------|--3--------3----3--3--|--3--3--3----3----3--3--|


    H        Q    E  E     E  E  Q    Q    E  E     H        Q    E  E   
e|----------------------|------------------------|----------------------|
B|----------------------|------------------------|----------------------|
G|--7--------7----7--7--|--7--7--7----7----7--7--|--9--------9----9--9--|
D|--7--------7----7--7--|--7--7--7----7----7--7--|--9--------9----9--9--|
A|--5--------5----5--5--|--5--5--5----5----5--5--|--7--------7----7--7--|
E|----------------------|------------------------|----------------------|


    H        Q    E  E     H        Q    E  E     H        Q    E  E   
e|----------------------|----------------------|----------------------|
B|----------------------|----------------------|----------------------|
G|--7--------7----7--7--|--5--------5----5--5--|--5--------5----5--5--|
D|--7--------7----7--7--|--5--------5----5--5--|--5--------5----5--5--|
A|--5--------5----5--5--|--3--------3----3--3--|--2--------2----2--2--|
E|----------------------|----------------------|----------------------|


    H        Q    E  E     H        Q    E  E     H        Q    E  E   
e|----------------------|----------------------|----------------------|
B|----------------------|----------------------|----------------------|
G|--2--------2----2--2--|----------------------|--9--------9----9--9--|
D|--2--------2----2--2--|--5--------5----5--5--|--9--------9----9--9--|
A|--0--------0----0--0--|--5--------5----5--5--|--7--------7----7--7--|
E|----------------------|--3--------3----3--3--|----------------------|


    H        Q    E  E     H        Q    E  E     H        Q    E  E   
e|----------------------|----------------------|----------------------|
B|----------------------|----------------------|----------------------|
G|--7--------7----7--7--|--5--------5----5--5--|--5--------5----5--5--|
D|--7--------7----7--7--|--5--------5----5--5--|--5--------5----5--5--|
A|--5--------5----5--5--|--3--------3----3--3--|--2--------2----2--2--|
E|----------------------|----------------------|----------------------|


    H        Q    E  E     W                   W                 
e|----------------------|-------------------|-------------------|
B|----------------------|-------------------|-------------------|
G|--2--------2----2--2--|-------------------|-------------------|
D|--2--------2----2--2--|--5----------------|--L----------------|
A|--0--------0----0--0--|--5----------------|--L----------------|
E|----------------------|--3----------------|--L----------------|

  (02:20)
                                       PM PM                       
                        Q    Q    Q    E  E     H        H         
e|-------------------|-----------------------|--------------------|
B|-------------------|-----------------------|--------------------|
G|-------------------|-----------------------|--------------------|
D|-------------------|-----------------2--2--|--2--------2--------|
A|-------------------|-----------------2--2--|--2--------2--------|
E|-------------------|-----------------0--0--|--0--------2--------|


    H        Q    Q       H        Q    E  E     E  E  Q    Q    E  E   
e|---------------------|----------------------|------------------------|
B|---------------------|----------------------|------------------------|
G|-----------2----4----|--5--------5----5--5--|--5--5--5----5----5--5--|
D|--5--------2----4----|--5--------5----5--5--|--5--5--5----5----5--5--|
A|--5--------0----2----|--3--------3----3--3--|--3--3--3----3----3--3--|
E|--3------------------|----------------------|------------------------|


    H        Q    E  E     E  E  Q    Q    E  E     H        Q    E  E   
e|----------------------|------------------------|----------------------|
B|----------------------|------------------------|----------------------|
G|----------------------|------------------------|--5--------5----5--5--|
D|--5--------5----5--5--|--5--5--5----5----5--5--|--5--------5----5--5--|
A|--3--------3----3--5--|--5--5--5----5----5--5--|--3--------3----3--3--|
E|--3--------3----3--3--|--3--3--3----3----3--3--|----------------------|


                                                                    PM PM  
    E  E  Q    Q    E  E     H        Q    E  E     E  E  Q    Q    E  E   
e|------------------------|----------------------|------------------------|
B|------------------------|----------------------|------------------------|
G|--5--5--5----5----5--5--|----------------------|------------------------|
D|--5--5--5----5----5--5--|--5--------5----5--5--|--5--5--5----5----5--5--|
A|--3--3--3----3----3--3--|--3--------3----3--5--|--5--5--5----5----5--5--|
E|------------------------|--3--------3----3--3--|--3--3--3----3----3--3--|


    H        Q    E  E     E  E  Q    Q    E  E     H        Q    E  E   
e|----------------------|------------------------|----------------------|
B|----------------------|------------------------|----------------------|
G|--7--------7----7--7--|--7--7--7----7----7--7--|--9--------9----9--9--|
D|--7--------7----7--7--|--7--7--7----7----7--7--|--9--------9----9--9--|
A|--5--------5----5--5--|--5--5--5----5----5--5--|--7--------7----7--7--|
E|----------------------|------------------------|----------------------|


    H        Q    E  E     H        Q    E  E     H        Q    E  E   
e|----------------------|----------------------|----------------------|
B|----------------------|----------------------|----------------------|
G|--7--------7----7--7--|--5--------5----5--5--|--5--------5----5--5--|
D|--7--------7----7--7--|--5--------5----5--5--|--5--------5----5--5--|
A|--5--------5----5--5--|--3--------3----3--3--|--2--------2----2--2--|
E|----------------------|----------------------|----------------------|


    H        Q    E  E     H        Q    E  E     H        Q    E  E   
e|----------------------|----------------------|----------------------|
B|----------------------|----------------------|----------------------|
G|--2--------2----2--2--|----------------------|--9--------9----9--9--|
D|--2--------2----2--2--|--5--------5----5--5--|--9--------9----9--9--|
A|--0--------0----0--0--|--5--------5----5--5--|--7--------7----7--7--|
E|----------------------|--3--------3----3--3--|----------------------|


    H        Q    E  E     H        Q    E  E     H        Q    E  E   
e|----------------------|----------------------|----------------------|
B|----------------------|----------------------|----------------------|
G|--7--------7----7--7--|--5--------5----5--5--|--5--------5----5--5--|
D|--7--------7----7--7--|--5--------5----5--5--|--5--------5----5--5--|
A|--5--------5----5--5--|--3--------3----3--3--|--2--------2----2--2--|
E|----------------------|----------------------|----------------------|


    H        Q    E  E     H        Q    E  E     H        Q    E  E   
e|----------------------|----------------------|----------------------|
B|----------------------|----------------------|----------------------|
G|--2--------2----2--2--|--5--------5----5--5--|--7--------7----7--7--|
D|--2--------2----2--2--|--5--------5----5--5--|--7--------7----7--7--|
A|--0--------0----0--0--|--3--------3----3--3--|--5--------5----5--5--|
E|----------------------|----------------------|----------------------|


    H        Q    E  E     E  E  Q    Q    E  E     H        Q    E  E   
e|----------------------|------------------------|----------------------|
B|----------------------|------------------------|----------------------|
G|--9--------9----9--9--|--9--9--9----9----9--9--|--5--------5----5--5--|
D|--9--------9----9--9--|--9--9--9----9----9--9--|--5--------5----5--5--|
A|--7--------7----7--7--|--7--7--7----7----7--7--|--3--------3----3--3--|
E|----------------------|------------------------|----------------------|


    H        Q    E  E     H        Q    E  E     E  E  Q    Q    E  E   
e|----------------------|----------------------|------------------------|
B|----------------------|----------------------|------------------------|
G|--7--------7----7--7--|--9--------9----9--9--|--9--9--9----9----9--9--|
D|--7--------7----7--7--|--9--------9----9--9--|--9--9--9----9----9--9--|
A|--5--------5----5--5--|--7--------7----7--7--|--7--7--7----7----7--7--|
E|----------------------|----------------------|------------------------|


    H        Q    E  E     H        Q    E  E     Q    E  E  Q    E  E   
e|----------------------|----------------------|------------------------|
B|----------------------|----------------------|------------------------|
G|--5--------5----5--5--|--7--------7----7--7--|--9----9--9--7----7--7--|
D|--5--------5----5--5--|--7--------7----7--7--|--9----9--9--7----7--7--|
A|--3--------3----3--3--|--5--------5----5--5--|--7----7--7--5----5--5--|
E|----------------------|----------------------|------------------------|


    Q    E  E  Q    E  E     H        Q    E  E     H        Q    E  E   
e|------------------------|----------------------|----------------------|
B|------------------------|----------------------|----------------------|
G|--5----5--5--5----5--5--|--2--------2----2--2--|--7--------7----7--7--|
D|--5----5--5--5----5--5--|--2--------2----2--2--|--7--------7----7--7--|
A|--3----3--3--2----2--2--|--0--------0----0--0--|--5--------5----5--5--|
E|------------------------|----------------------|----------------------|


                        PM PM PM PM                                            
    W                   E  E  E  E  E  E  E  E                                 
e|-------------------|--------------------------|-----|-----|-----|-----|-----|
B|-------------------|--------------------------|-----|-----|-----|-----|-----|
G|-------------------|--------------------------|-----|-----|-----|-----|-----|
D|--2----------------|--2--2--2--2--2--2--2--2--|-----|-----|-----|-----|-----|
A|--2----------------|--2--2--2--2--2--2--2--2--|-----|-----|-----|-----|-----|
E|--0----------------|--0--0--0--0--0--0--0--0--|-----|-----|-----|-----|-----|

(04:01)

                  PM PM                                                
    H        Q    E  E     H        Q    E  E     H        Q    E  E   
e|----------------------|----------------------|----------------------|
B|----------------------|----------------------|----------------------|
G|----------------7--7--|--7--------7----7--7--|--5--------5----5--5--|
D|----------------7--7--|--7--------7----7--7--|--5--------5----5--5--|
A|----------------5--5--|--5--------5----5--5--|--3--------3----3--3--|
E|----------------------|----------------------|----------------------|


    H        Q    E  E     H        Q    E  E     H        Q    E  E   
e|----------------------|----------------------|----------------------|
B|----------------------|----------------------|----------------------|
G|--5--------5----5--5--|--2--------2----2--2--|--5--------5----5--5--|
D|--5--------5----5--5--|--2--------2----2--2--|--5--------5----5--5--|
A|--2--------2----2--2--|--0--------0----0--0--|--3--------3----3--3--|
E|----------------------|----------------------|----------------------|


    E  E  Q    Q    E  E     H        Q    E  E     E  E  Q    Q    E  E   
e|------------------------|----------------------|------------------------|
B|------------------------|----------------------|------------------------|
G|--5--5--5----5----5--5--|----------------------|------------------------|
D|--5--5--5----5----5--5--|--5--------5----5--5--|--5--5--5----5----5--5--|
A|--3--3--3----3----3--3--|--3--------3----3--5--|--5--5--5----5----5--5--|
E|------------------------|--3--------3----3--3--|--3--3--3----3----3--3--|


    H        Q    E  E     E  E  Q    Q    E  E     H        Q    E  E   
e|----------------------|------------------------|----------------------|
B|----------------------|------------------------|----------------------|
G|--5--------5----5--5--|--5--5--5----5----5--5--|----------------------|
D|--5--------5----5--5--|--5--5--5----5----5--5--|--5--------5----5--5--|
A|--3--------3----3--3--|--3--3--3----3----3--3--|--3--------3----3--5--|
E|----------------------|------------------------|--3--------3----3--3--|


                    PM PM                                                  
    E  E  Q    Q    E  E     H        Q    E  E     E  E  Q    Q    E  E   
e|------------------------|----------------------|------------------------|
B|------------------------|----------------------|------------------------|
G|------------------------|--7--------7----7--7--|--7--7--7----7----7--7--|
D|--5--5--5----5----5--5--|--7--------7----7--7--|--7--7--7----7----7--7--|
A|--5--5--5----5----5--5--|--5--------5----5--5--|--5--5--5----5----5--5--|
E|--3--3--3----3----3--3--|----------------------|------------------------|


    H        Q    E  E     H        Q    E  E     H        Q    E  E   
e|----------------------|----------------------|----------------------|
B|----------------------|----------------------|----------------------|
G|--9--------9----9--9--|--7--------7----7--7--|--5--------5----5--5--|
D|--9--------9----9--9--|--7--------7----7--7--|--5--------5----5--5--|
A|--7--------7----7--7--|--5--------5----5--5--|--3--------3----3--3--|
E|----------------------|----------------------|----------------------|


    H        Q    E  E     H        Q    E  E     H        Q    E  E   
e|----------------------|----------------------|----------------------|
B|----------------------|----------------------|----------------------|
G|--5--------5----5--5--|--2--------2----2--2--|----------------------|
D|--5--------5----5--5--|--2--------2----2--2--|--5--------5----5--5--|
A|--2--------2----2--2--|--0--------0----0--0--|--5--------5----5--5--|
E|----------------------|----------------------|--3--------3----3--3--|


    H        Q    E  E     H        Q    E  E     H        Q    E  E   
e|----------------------|----------------------|----------------------|
B|----------------------|----------------------|----------------------|
G|--9--------9----9--9--|--7--------7----7--7--|--5--------5----5--5--|
D|--9--------9----9--9--|--7--------7----7--7--|--5--------5----5--5--|
A|--7--------7----7--7--|--5--------5----5--5--|--3--------3----3--3--|
E|----------------------|----------------------|----------------------|


    H        Q    E  E     H        Q    E  E     W                 
e|----------------------|----------------------|-------------------|
B|----------------------|----------------------|-------------------|
G|--5--------5----5--5--|--2--------2----2--2--|--5----------------|
D|--5--------5----5--5--|--2--------2----2--2--|--5----------------|
A|--2--------2----2--2--|--0--------0----0--0--|--3----------------|
E|----------------------|----------------------|-------------------|


                        v                                                         
    W                   W                   W                   W                 
e|-------------------|-------------------|-------------------|-------------------|
B|-------------------|-------------------|-------------------|-------------------|
G|--L----------------|-------------------|-------------------|-------------------|
D|--L----------------|--5----------------|--L----------------|--L----------------|
A|--L----------------|--5----------------|--L----------------|--L----------------|
E|-------------------|--3----------------|--L----------------|--L----------------|


    W                                      
e|-------------------|-------------------||
B|-------------------|-------------------||
G|-------------------|-------------------||
D|--L----------------|-------------------||
A|--L----------------|-------------------||
E|--L----------------|-------------------||


[Guitar 2]

     Q    Q    Q    Q       Q    Q    Q    Q       Q    Q    Q    Q     
e||----------------------|----------------------|----------------------|
B||----------------------|------------3---------|------------3---------|
G||------------0---------|-------2---------2----|-------0---------0----|
D||-------2---------2----|--4-------------------|----------------------|
A||----------------------|----------------------|----------------------|
E||--0-------------------|----------------------|--3-------------------|


    Q    Q    E  E  E  E     Q    Q    E  E  E  E     Q    Q    E  E  E  E   
e|------------0-----------|------------0-----------|------------0-----------|
B|---------------1--------|---------------1--------|---------------3--------|
G|-------0----------0-----|-------2----------2-----|-------2----------2-----|
D|---------------------2--|---------------------2--|--0------------------0--|
A|--3---------------------|--0---------------------|------------------------|
E|------------------------|------------------------|------------------------|


    E  E  E  E  E  E  E  E     W                   Q    Q    Q    Q     
e|--------------------------|--0----------------|----------------------|
B|--------------0--------0--|-------------------|----------------------|
G|-----------0-----0--------|-------------------|------------0---------|
D|--------4-----------4-----|-------------------|-------2---------2----|
A|-----2--------------------|-------------------|----------------------|
E|--0-----------------------|-------------------|--0-------------------|


    Q    Q    Q    E  E     Q    Q    Q    Q       Q    Q    E  E  E  E   
e|-----------------------|----------------------|------------0-----------|
B|------------3----------|------------3---------|---------------3--------|
G|-------2---------2-----|-------0---------0----|-------0----------0-----|
D|--0-----------------0--|----------------------|---------------------2--|
A|-----------------------|----------------------|--3---------------------|
E|-----------------------|--3-------------------|------------------------|


    Q    Q    E  E  E  E     Q    Q    E  E  E  E     Q    Q    Q    Q     
e|------------0-----------|------------2-----------|----------------------|
B|---------------1--------|---------------3--------|------------3---------|
G|-------2----------2-----|-------2----------2-----|-----------------0----|
D|---------------------2--|--0------------------0--|-------0--------------|
A|--0---------------------|------------------------|----------------------|
E|------------------------|------------------------|--3-------------------|


    Q    Q    E  E  E  E     Q    Q    Q    Q       Q    Q    Q    E  E   
e|------------------------|----------------------|-----------------------|
B|---------------------3--|----------------------|------------3----------|
G|------------------2-----|------------0---------|-------2---------2-----|
D|--0------------0--------|-------2---------2----|--0-----------------0--|
A|------------------------|----------------------|-----------------------|
E|-------3----2-----------|--0-------------------|-----------------------|


    Q    Q    Q    Q       Q    Q    E  E  E  E     Q    Q    E  E  E  E   
e|----------------------|------------0-----------|------------0-----------|
B|------------3---------|---------------3--------|---------------1--------|
G|-------0---------0----|-------0----------0-----|-------2----------2-----|
D|----------------------|---------------------2--|---------------------2--|
A|----------------------|--3---------------------|--0---------------------|
E|--3-------------------|------------------------|------------------------|


    Q    Q    E  E  E  E     Q    Q    Q    Q       Q    Q    Q    Q     
e|------------2-----------|----------------------|------------0---------|
B|---------------3--------|----------------------|--0--------------0----|
G|-------2----------2-----|------------0---------|-------0--------------|
D|--0------------------0--|-------2---------2----|----------------------|
A|------------------------|----------------------|----------------------|
E|------------------------|--0-------------------|----------------------|


    E  E  E  E  E  E  E  E     E  E  E  E  E  E  E  E   
e|--------------0-----------|--------------0-----------|
B|-----------1-----1--------|-----------1-----1--------|
G|--------2-----------2-----|--------2-----------2-----|
D|-----2-----------------2--|-----2-----------------2--|
A|--0-----------------------|--0-----------------------|
E|--------------------------|--------------------------|


    E  E  E  E  E  E  E  E     E  E  E  E  E  E  E  E   
e|--------------0-----------|--------------0-----------|
B|-----------0-----0--------|-----------0-----0--------|
G|--------0-----------0-----|--------0-----------0-----|
D|-----2-----------------2--|-----2-----------------2--|
A|--------------------------|--------------------------|
E|--0-----------------------|--0-----------------------|


    E  E  E  E  E  E  E  E     E  E  E  E  E  E  E  E   
e|--------------2-----------|--------------2-----------|
B|--------3--------3-----3--|--------3--------3-----3--|
G|-----2-----2--------2-----|-----2-----2--------2-----|
D|--0-----------------------|--0-----------------------|
A|--------------------------|--------------------------|
E|--------------------------|--------------------------|


    E  E  E  E  E  E  E  E     W                   E  E  E  E  E  E  E  E   
e|--------------0-----------|-------------------|--------------------------|
B|-----------1-----1--------|-------------------|--------------------------|
G|--------0-----------0-----|-------------------|--------0-----------2-----|
D|-----2-----------------2--|-------------------|-----2-----2-----4-----4--|
A|--3-----------------------|--3----------------|--------------5-----------|
E|--------------------------|-------------------|--0-----------------------|


    E  E  E  E  E  E  E  E     E  E  E  E  E  E  E  E   
e|--------------------------|--------------0-----------|
B|--------0-----------0-----|-----------------3--------|
G|-----0-----0-----0-----0--|--------0-----------0-----|
D|--0-----------0-----------|-----2-----2-----------2--|
A|--------------------------|--------------------------|
E|--------------------------|--0-----------------------|


    E  E  E  E  E  E  E  E     E  E  E  E  E  E  E  E   
e|--------------0-----------|--------------3-----------|
B|-----------------3--------|-----------------3--------|
G|--------0-----------0-----|--------0-----------0-----|
D|-----2-----2-----------2--|-----0-----0-----------0--|
A|--------------------------|--------------------------|
E|--0-----------------------|--3-----------------------|


    E  E  E  E  E  E  E  E     E  E  E  E  E  E  E  E   
e|--------------3-----------|--------------0-----------|
B|-----------------3--------|-----------------3--------|
G|--------0-----------0-----|--------0-----------0-----|
D|-----0-----0-----------0--|-----2-----2-----------2--|
A|--------------------------|--------------------------|
E|--3-----------------------|--0-----------------------|


    E  E  E  E  E  E  E  E     E  E  E  E  E  E  E  E   
e|--------------0-----------|--------------3-----------|
B|-----------------3--------|-----------------3--------|
G|--------0-----------0-----|--------0-----------0-----|
D|-----2-----2-----------2--|-----0-----0-----------0--|
A|--------------------------|--------------------------|
E|--0-----------------------|--3-----------------------|


    E  E  E  E  E  E  E  E     E  E  E  E  E  E  E  E   
e|--------------3-----------|--------------2-----------|
B|-----------------3--------|-----------3-----3--------|
G|--------0-----------0-----|--------2-----------2-----|
D|-----0-----0-----------0--|-----0-----------------0--|
A|--------------------------|--------------------------|
E|--3-----------------------|--0-----------------------|


    E  E  E  E  E  E  E  E     E  E  E  E  E  E  E  E   
e|--------------2-----------|--------------0-----------|
B|-----------3-----3--------|-----------0-----0--------|
G|--------2-----------2-----|--------0-----------0-----|
D|-----0-----------------0--|-----2-----------------2--|
A|--------------------------|--------------------------|
E|--0-----------------------|--0-----------------------|


    E  E  E  E  E  E  E  E     E  E  E  E  E  E  E  E   
e|--------------2-----------|--------------0-----------|
B|-----------3-----3--------|-----------0-----0--------|
G|--------2-----------2-----|--------0-----------0-----|
D|-----0-----------------0--|-----2-----------------2--|
A|--------------------------|--------------------------|
E|--0-----------------------|--0-----------------------|


    E  E  E  E  E  E  E  E     E  E  E  E  E  E  E  E   
e|--------------0-----------|--------------0-----------|
B|-----------0-----0--------|-----------0-----0--------|
G|--------0-----------0-----|--------0-----------0-----|
D|-----2-----------------2--|-----2-----------------2--|
A|--------------------------|--------------------------|
E|--0-----------------------|--0-----------------------|


    E  E  E  E  E  E  E  E     E  E  E  E  E  E  E  E   
e|--------------0-----------|--------------2-----------|
B|-----------0-----0--------|-----------3-----3--------|
G|--------0-----------0-----|--------2-----------2-----|
D|-----2-----------------2--|-----0-----------------0--|
A|--------------------------|--------------------------|
E|--0-----------------------|--0-----------------------|


    E  E  E  E  E  E  E  E     E  E  E  E  E  E  E  E     Q    Q    Q    Q     
e|--------------2-----------|--------------2-----------|----------------------|
B|-----------3-----3--------|-----------3-----3--------|------------3---------|
G|--------2-----------2-----|--------2-----------2-----|-----------------0----|
D|-----0-----------------0--|-----0-----------------0--|-------0--------------|
A|--------------------------|--------------------------|----------------------|
E|--0-----------------------|--0-----------------------|--3-------------------|


    Q    Q    E  E  E  E     Q    Q    Q    Q       Q    Q    Q    E  E   
e|------------------------|----------------------|-----------------------|
B|---------------------3--|----------------------|------------3----------|
G|------------------2-----|------------0---------|-------2---------2-----|
D|--0------------0--------|-------2---------2----|--0-----------------0--|
A|------------------------|----------------------|-----------------------|
E|-------3----2-----------|--0-------------------|-----------------------|


    Q    Q    Q    Q       Q    Q    E  E  E  E     Q    Q    E  E  E  E   
e|----------------------|------------0-----------|------------0-----------|
B|------------3---------|---------------3--------|---------------1--------|
G|-------0---------0----|-------0----------0-----|-------2----------2-----|
D|----------------------|---------------------2--|---------------------2--|
A|----------------------|--3---------------------|--0---------------------|
E|--3-------------------|------------------------|------------------------|


    Q    Q    E  E  E  E     Q    Q    Q    Q       Q    Q    E  E  E  E   
e|------------0-----------|----------------------|------------------------|
B|---------------3--------|------------3---------|---------------------3--|
G|-------2----------2-----|-----------------0----|------------------2-----|
D|--0------------------0--|-------0--------------|--0------------0--------|
A|------------------------|----------------------|------------------------|
E|------------------------|--3-------------------|-------3----2-----------|


    Q    Q    Q    Q       Q    Q    Q    E  E     Q    Q    Q    Q     
e|----------------------|-----------------------|----------------------|
B|----------------------|------------3----------|------------3---------|
G|------------0---------|-------2---------2-----|-------0---------0----|
D|-------2---------2----|--0-----------------0--|----------------------|
A|----------------------|-----------------------|----------------------|
E|--0-------------------|-----------------------|--3-------------------|


    Q    Q    E  E  E  E     Q    Q    E  E  E  E     Q    Q    E  E  E  E   
e|------------0-----------|------------0-----------|------------2-----------|
B|---------------3--------|---------------1--------|---------------3--------|
G|-------0----------0-----|-------2----------2-----|-------2----------2-----|
D|---------------------2--|---------------------2--|--0------------------0--|
A|--3---------------------|--0---------------------|------------------------|
E|------------------------|------------------------|------------------------|


    Q    Q    Q    Q       Q    Q    Q    Q       E  E  E  E  E  E  E  E   
e|----------------------|------------0---------|--------------0-----------|
B|----------------------|--0--------------0----|-----------1-----1--------|
G|------------0---------|-------0--------------|--------2-----------2-----|
D|-------2---------2----|----------------------|-----2-----------------2--|
A|----------------------|----------------------|--0-----------------------|
E|--0-------------------|----------------------|--------------------------|


    E  E  E  E  E  E  E  E     E  E  E  E  E  E  E  E   
e|--------------0-----------|--------------0-----------|
B|-----------1-----1--------|-----------0-----0--------|
G|--------2-----------2-----|--------0-----------0-----|
D|-----2-----------------2--|-----2-----------------2--|
A|--0-----------------------|--------------------------|
E|--------------------------|--0-----------------------|


    E  E  E  E  E  E  E  E     E  E  E  E  E  E  E  E   
e|--------------0-----------|--------------2-----------|
B|-----------0-----0--------|--------3--------3-----3--|
G|--------0-----------0-----|-----2-----2--------2-----|
D|-----2-----------------2--|--0-----------------------|
A|--------------------------|--------------------------|
E|--0-----------------------|--------------------------|


    E  E  E  E  E  E  E  E     E  E  E  E  E  E  E  E   
e|--------------2-----------|--------------0-----------|
B|--------3--------3-----3--|-----------1-----1--------|
G|-----2-----2--------2-----|--------0-----------0-----|
D|--0-----------------------|-----2-----------------2--|
A|--------------------------|--3-----------------------|
E|--------------------------|--------------------------|


    E  E  E  E  E  E  E  E     E  E  E  E  E  E  E  E   
e|--------------0-----------|--------------------------|
B|-----------1-----1--------|--------------------------|
G|--------0-----------0-----|--------0-----------2-----|
D|-----2-----------------2--|-----2-----2-----4-----4--|
A|--3-----------------------|--------------5-----------|
E|--------------------------|--0-----------------------|


    E  E  E  E  E  E  E  E     E  E  E  E  E  E  E  E   
e|--------------------------|--------------0-----------|
B|--------0-----------0-----|-----------------3--------|
G|-----0-----0-----0-----0--|--------0-----------0-----|
D|--0-----------0-----------|-----2-----2-----------2--|
A|--------------------------|--------------------------|
E|--------------------------|--0-----------------------|


    E  E  E  E  E  E  E  E     E  E  E  E  E  E  E  E   
e|--------------0-----------|--------------3-----------|
B|-----------------3--------|-----------------3--------|
G|--------0-----------0-----|--------0-----------0-----|
D|-----2-----2-----------2--|-----0-----0-----------0--|
A|--------------------------|--------------------------|
E|--0-----------------------|--3-----------------------|


    E  E  E  E  E  E  E  E     E  E  E  E  E  E  E  E   
e|--------------3-----------|--------------0-----------|
B|-----------------3--------|-----------------3--------|
G|--------0-----------0-----|--------0-----------0-----|
D|-----0-----0-----------0--|-----2-----2-----------2--|
A|--------------------------|--------------------------|
E|--3-----------------------|--0-----------------------|


    E  E  E  E  E  E  E  E     E  E  E  E  E  E  E  E   
e|--------------0-----------|--------------3-----------|
B|-----------------3--------|-----------------3--------|
G|--------0-----------0-----|--------0-----------0-----|
D|-----2-----2-----------2--|-----0-----0-----------0--|
A|--------------------------|--------------------------|
E|--0-----------------------|--3-----------------------|


    E  E  E  E  E  E  E  E     E  E  E  E  E  E  E  E   
e|--------------3-----------|--------------2-----------|
B|-----------------3--------|-----------3-----3--------|
G|--------0-----------0-----|--------2-----------2-----|
D|-----0-----0-----------0--|-----0-----------------0--|
A|--------------------------|--------------------------|
E|--3-----------------------|--0-----------------------|


    E  E  E  E  E  E  E  E     E  E  E  E  E  E  E  E   
e|--------------2-----------|--------------0-----------|
B|-----------3-----3--------|-----------0-----0--------|
G|--------2-----------2-----|--------0-----------0-----|
D|-----0-----------------0--|-----2-----------------2--|
A|--------------------------|--------------------------|
E|--0-----------------------|--0-----------------------|


    E  E  E  E  E  E  E  E     E  E  E  E  E  E  E  E   
e|--------------2-----------|--------------0-----------|
B|-----------3-----3--------|-----------0-----0--------|
G|--------2-----------2-----|--------0-----------0-----|
D|-----0-----------------0--|-----2-----------------2--|
A|--------------------------|--------------------------|
E|--0-----------------------|--0-----------------------|


    E  E  E  E  E  E  E  E     E  E  E  E  E  E  E  E   
e|--------------0-----------|--------------0-----------|
B|-----------0-----0--------|-----------0-----0--------|
G|--------0-----------0-----|--------0-----------0-----|
D|-----2-----------------2--|-----2-----------------2--|
A|--------------------------|--------------------------|
E|--0-----------------------|--0-----------------------|


    E  E  E  E  E  E  E  E     E  E  E  E  E  E  E  E   
e|--------------0-----------|--------------2-----------|
B|-----------0-----0--------|-----------3-----3--------|
G|--------0-----------0-----|--------2-----------2-----|
D|-----2-----------------2--|-----0-----------------0--|
A|--------------------------|--------------------------|
E|--0-----------------------|--0-----------------------|


    E  E  E  E  E  E  E  E     E  E  E  E  E  E  E  E   
e|--------------2-----------|--------------2-----------|
B|-----------3-----3--------|-----------3-----3--------|
G|--------2-----------2-----|--------2-----------2-----|
D|-----0-----------------0--|-----0-----------------0--|
A|--------------------------|--------------------------|
E|--0-----------------------|--0-----------------------|


    E  E  E  E  E  E  E  E   
e|--------------2-----------|
B|-----------3-----3--------|
G|--------2-----------2-----|
D|-----0-----------------0--|
A|--------------------------|
E|--0-----------------------|


        |--3--|  |--3--|  |--3--|  |--3--|  |--3--|  |--3--|  
  Q     S  S  S  S  S  S  S  S  S  S  S  S  S  S  S  S  S  S  
e|----------------------------------------------------12-14-15-|
B|-------------------------------------------12-14-15----------|
G|----------11-12-14-12-11----------12-14-16-------------------|
D|-------14----------------12-14-16----------------------------|
A|-------------------------------------------------------------|
E|-------------------------------------------------------------|


     H        E   Q     E      H        Q     E   E   
e|--15--------L--14b----L--|--14--------L----12--10--|
B|-------------------------|-------------------------|
G|-------------------------|-------------------------|
D|-------------------------|-------------------------|
A|-------------------------|-------------------------|
E|-------------------------|-------------------------|


     E   E   E   H         S S     S  E  S Q     E   E   E   E   
e|--12--14--15--12--------10---|--10-12--L-L----12--------------|
B|-----------------------------|--------------------12--12--15--|
G|-----------------------------|--------------------------------|
D|-----------------------------|--------------------------------|
A|-----------------------------|--------------------------------|
E|-----------------------------|--------------------------------|


     Q     E   Q    E   E   E     Q     E   Q    E  E   E    
e|-----------------------------|----------------------------|
B|--15----13--13----L--12--12--|--L----10--10----L--8--10b--|
G|-----------------------------|----------------------------|
D|-----------------------------|----------------------------|
A|-----------------------------|----------------------------|
E|-----------------------------|----------------------------|


            |----3---|   |----3---|       |-3-|                         
  H         E   E    E   E    E   E       E   Q     E  S S Q    E  S S  
e|-----------10---L---10---L---10---L---|--10---L-----L------------------|
B|--L------------10b---L--10b---L--10b--|---L--10b----L--8---------------|
G|--------------------------------------|------------------7-9----L------|
D|--------------------------------------|----------------------------7-9-|
A|--------------------------------------|--------------------------------|
E|--------------------------------------|--------------------------------|


     Q    E  Q    E  E  E     Q    E   Q     E  S  E  S  
e|-------------------------|----------------------------|
B|-------------------8--7--|--L----8--10----12----10----|
G|--------7--9----L--------|----------------------------|
D|--10---------------------|----------------------------|
A|-------------------------|----------------------------|
E|-------------------------|----------------------------|


             |--3--|                                           
  S  S Q     S  S  S  E.   E.   E      H        Q    E   S  S  
e|------------14-15-17-19---17---15--|--------------------------|
B|--8-10-8---------------------------|--17--------L----L--12-13-|
G|-----------------------------------|--------------------------|
D|-----------------------------------|--------------------------|
A|-----------------------------------|--------------------------|
E|-----------------------------------|--------------------------|


     Q     E   Q    E   E   E     Q     E   Q    E  E   E    
e|-----------------------------|----------------------------|
B|--15----13--13----L--12--12--|--L----10--10----L--8--10b--|
G|-----------------------------|----------------------------|
D|-----------------------------|----------------------------|
A|-----------------------------|----------------------------|
E|-----------------------------|----------------------------|


            |----3---|   |----3---|       |-3-|                      
  H         E   E    E   E    E   E       E   Q     E  S S H         
e|-----------10---L---10---L---10---L---|--10---L-----L---------------|
B|--L------------10b---L--10b---L--10b--|---L--10b----L--8------------|
G|--------------------------------------|------------------7-9--------|
D|--------------------------------------|-----------------------------|
A|--------------------------------------|-----------------------------|
E|--------------------------------------|-----------------------------|


    E  E  E  E  E  E  E  E     E  E  E  E  E  E  E  E   
e|--------------0-----------|--------------0-----------|
B|-----------1-----1--------|-----------1-----1--------|
G|--------2-----------2-----|--------2-----------2-----|
D|-----2-----------------2--|-----2-----------------2--|
A|--0-----------------------|--0-----------------------|
E|--------------------------|--------------------------|


    E  E  E  E  E  E  E  E     E  E  E  E  E  E  E  E   
e|--------------0-----------|--------------0-----------|
B|-----------0-----0--------|-----------0-----0--------|
G|--------0-----------0-----|--------0-----------0-----|
D|-----2-----------------2--|-----2-----------------2--|
A|--------------------------|--------------------------|
E|--0-----------------------|--0-----------------------|


    E  E  E  E  E  E  E  E     E  E  E  E  E  E  E  E   
e|--------------2-----------|--------------2-----------|
B|--------3--------3-----3--|--------3--------3-----3--|
G|-----2-----2--------2-----|-----2-----2--------2-----|
D|--0-----------------------|--0-----------------------|
A|--------------------------|--------------------------|
E|--------------------------|--------------------------|


    E  E  E  E  E  E  E  E     E  E  E  E  E  E  E  E   
e|--------------0-----------|--------------0-----------|
B|-----------1-----1--------|-----------1-----1--------|
G|--------0-----------0-----|--------0-----------0-----|
D|-----2-----------------2--|-----2-----------------2--|
A|--3-----------------------|--3-----------------------|
E|--------------------------|--------------------------|


    E  E  E  E  E  E  E  E     E  E  E  E  E  E  E  E   
e|--------------0-----------|--------------0-----------|
B|-----------1-----1--------|-----------1-----1--------|
G|--------2-----------2-----|--------2-----------2-----|
D|-----2-----------------2--|-----2-----------------2--|
A|--0-----------------------|--0-----------------------|
E|--------------------------|--------------------------|


    E  E  E  E  E  E  E  E     E  E  E  E  E  E  E  E   
e|--------------0-----------|--------------0-----------|
B|-----------0-----0--------|-----------0-----0--------|
G|--------0-----------0-----|--------0-----------0-----|
D|-----2-----------------2--|-----2-----------------2--|
A|--------------------------|--------------------------|
E|--0-----------------------|--0-----------------------|


    E  E  E  E  E  E  E  E     E  E  E  E  E  E  E  E   
e|--------------2-----------|--------------2-----------|
B|--------3--------3-----3--|--------3--------3-----3--|
G|-----2-----2--------2-----|-----2-----2--------2-----|
D|--0-----------------------|--0-----------------------|
A|--------------------------|--------------------------|
E|--------------------------|--------------------------|


    E  E  E  E  E  E  E  E     E  E  E  E  E  E  E  E   
e|--------------0-----------|--------------0-----------|
B|-----------1-----1--------|-----------1-----1--------|
G|--------0-----------0-----|--------0-----------0-----|
D|-----2-----------------2--|-----2-----------------2--|
A|--3-----------------------|--3-----------------------|
E|--------------------------|--------------------------|


    E  E  E  E  E  E  E  E      S  S  S  S  S  S  S  S  S  S  S  S  S  S  S  S  
e|--------------0--L--L--L--|-----------------------------------------------12-|
B|-----------1-----1--L--L--|-----------------------------------------12-15----|
G|--------2-----------2--L--|--------------12-14-12-------------12-14----------|
D|-----2-----------------2--|--------12-14----------14----12-14----------------|
A|--0-----------------------|--12-15-------------------15----------------------|
E|--------------------------|--------------------------------------------------|


     H        E    Q    E       H        Q     E   E      E   H        Q    E   
e|--14--------L--/14----L--|--/14--------L----14--12--|--14--14--------L----L--|
B|-------------------------|--------------------------|------------------------|
G|-------------------------|--------------------------|------------------------|
D|-------------------------|--------------------------|------------------------|
A|-------------------------|--------------------------|------------------------|
E|-------------------------|--------------------------|------------------------|


     H        Q     E   E      W                                     
e|-----------------12--14--|--15----------------|-------------------|
B|--15--------L------------|--------------------|-------------------|
G|-------------------------|--------------------|-------------------|
D|-------------------------|--------------------|-------------------|
A|-------------------------|--------------------|-------------------|
E|-------------------------|--------------------|-------------------|


    E  E  E  E  E  E  E  E     E  E  E  E  E  E  E  E   
e|--------------3-----------|--------------3-----------|
B|-----------------3--------|-----------------3--------|
G|--------0-----------0-----|--------0-----------0-----|
D|-----0-----0-----------0--|-----0-----0-----------0--|
A|--------------------------|--------------------------|
E|--3-----------------------|--3-----------------------|


    E  E  E  E  E  E  E  E     E  E  E  E  E  E  E  E   
e|--------------0-----------|--------------0-----------|
B|-----------------3--------|-----------------3--------|
G|--------0-----------0-----|--------0-----------0-----|
D|-----2-----2-----------2--|-----2-----2-----------2--|
A|--------------------------|--------------------------|
E|--0-----------------------|--0-----------------------|


    E  E  E  E  E  E  E  E     E  E  E  E  E  E  E  E   
e|--------------3-----------|--------------3-----------|
B|-----------------3--------|-----------------3--------|
G|--------0-----------0-----|--------0-----------0-----|
D|-----0-----0-----------0--|-----0-----0-----------0--|
A|--------------------------|--------------------------|
E|--3-----------------------|--3-----------------------|


    E  E  E  E  E  E  E  E     E  E  E  E  E  E  E  E   
e|--------------2-----------|--------------2-----------|
B|-----------3-----3--------|-----------3-----3--------|
G|--------2-----------2-----|--------2-----------2-----|
D|-----0-----------------0--|-----0-----------------0--|
A|--------------------------|--------------------------|
E|--0-----------------------|--0-----------------------|


    E  E  E  E  E  E  E  E     E  E  E  E  E  E  E  E   
e|--------------0-----------|--------------2-----------|
B|-----------0-----0--------|-----------3-----3--------|
G|--------0-----------0-----|--------2-----------2-----|
D|-----2-----------------2--|-----0-----------------0--|
A|--------------------------|--------------------------|
E|--0-----------------------|--0-----------------------|


    E  E  E  E  E  E  E  E     E  E  E  E  E  E  E  E   
e|--------------0-----------|--------------0-----------|
B|-----------0-----0--------|-----------0-----0--------|
G|--------0-----------0-----|--------0-----------0-----|
D|-----2-----------------2--|-----2-----------------2--|
A|--------------------------|--------------------------|
E|--0-----------------------|--0-----------------------|


    E  E  E  E  E  E  E  E     E  E  E  E  E  E  E  E   
e|--------------0-----------|--------------0-----------|
B|-----------0-----0--------|-----------0-----0--------|
G|--------0-----------0-----|--------0-----------0-----|
D|-----2-----------------2--|-----2-----------------2--|
A|--------------------------|--------------------------|
E|--0-----------------------|--0-----------------------|


    E  E  E  E  E  E  E  E     E  E  E  E  E  E  E  E   
e|--------------2-----------|--------------2-----------|
B|-----------3-----3--------|-----------3-----3--------|
G|--------2-----------2-----|--------2-----------2-----|
D|-----0-----------------0--|-----0-----------------0--|
A|--------------------------|--------------------------|
E|--0-----------------------|--0-----------------------|


    E  E  E  E  E  E  E  E     E  E  E  E  E  E  E  E   
e|--------------2-----------|--------------2-----------|
B|-----------3-----3--------|-----------3-----3--------|
G|--------2-----------2-----|--------2-----------2-----|
D|-----0-----------------0--|-----0-----------------0--|
A|--------------------------|--------------------------|
E|--0-----------------------|--0-----------------------|


    E  E  E  E  E  E  E  E     W                   W                 
e|--------------2-----------|-------------------|-------------------|
B|-----------3-----3--------|-------------------|-------------------|
G|--------2-----------2-----|--5----------------|--L----------------|
D|-----0-----------------0--|--5----------------|--L----------------|
A|--------------------------|--3----------------|--L----------------|
E|--0-----------------------|-------------------|-------------------|


    v                                                                             
    W                   W                   W                   W                 
e|-------------------|-------------------|-------------------|-------------------|
B|-------------------|-------------------|-------------------|-------------------|
G|-------------------|-------------------|-------------------|-------------------|
D|--5----------------|--L----------------|--L----------------|--L----------------|
A|--5----------------|--L----------------|--L----------------|--L----------------|
E|--3----------------|--L----------------|--L----------------|--L----------------| 
 

************************************

| b  Bend
| /  Slide up 

************************************
Suggest correction
comments
print report bad tab
12 comments total. Showing first comments.
0 reply
DBZJunkie 10 Aug 24, 2013 01:06 AM

Dude, I need a favorite button for your tabs/GP tabs. Covers on Youtube are flawless and so are your tabs my friend. Keep up the good work

0 reply
dkm817 7,189 Aug 25, 2013 07:26 PM

I really appreciate the support! You're going to be one of the few I'm going to remember years from now. :D

0 reply
Roqua_99 43 Aug 25, 2013 09:27 PM

If you could add over the tab for the clean the chords used, that would be awesome man!

Otherwise, thanks for the Stone Sour tabs and this! They are 100% and you get them up pretty quick!!!

<3

guest
You may want to rate the tab now too:
select rating
Wanna post a correction for this tab? Suggest correction