Oops, an error
Loading. Please wait.

Crimson Day bass

version 2
version 2
1,828 views 1 this week
2 commentsread comments
1 2 3 4 5
x 6
add to favorites
×
Save as Personal and add changes to this tab that will be seen only by you. Learn more ›
×
You can save this tab as Personal to edit and correct it or add notes. All changes will be seen only by you. Learn more »
launch autoscroll
font size
0
reset
guitar tuner
edit
Autoscroll
slow
fast
+/-
esc
set tempo
stop
-----------------------------------------------------------------------------
                             Crimson Day - Avenged Sevenfold
-----------------------------------------------------------------------------
Tabbed by: Andu Needle
E-mail: sulfur_in_my_lungs@yahoo.com

Part before chorus:

G|---------------------------------------------------------|
D|---------------------------------------------------------|
A|-------------0~------------------------------------------|
D|-2~--4~--5~----------------------------------------------|

Chorus:

G|---------------------------------------------------------|
D|---------------------------------------------------------|
A|-33333333----------33333333------------------------------|
D|----------55555555----------55555555---------------------|

G|---------------------------------------------------------|
D|---------------------------------------------------------|
A|-55555555-77777777---------------------------------------|
D|---------------------------------------------------------|

G|---------------------------------------------------------|
D|---------------------------------------------------------|
A|-3333-2222-00000000-5555---------------------------------|
D|---------------------------------------------------------|

G|---------------------------------------------------------|
D|---------------------------------------------------------|
A|-3333-2222-0000------------------------------------------|
D|----------------5555-4444~-------------------------------|

Verse:

G|---------------------------------------------------------|
D|---------------------------------------------------------|
A|----------------3333-0000-5555-77777777------------------|
D|-2222-4444-5555------------------------------------------|(x2)

Pre chorus:

G|---------------------------------------------------------|
D|---------------------------------------------------------|
A|-00000000-77777777-55555555-33333333---------------------|
D|---------------------------------------------------------|

Part before chorus:

G|---------------------------------------------------------|
D|---------------------------------------------------------|
A|-------------0~------------------------------------------|
D|-2~--4~--5~----------------------------------------------|

Chorus 2:

G|---------------------------------------------------------|
D|---------------------------------------------------------|
A|-33333333----------33333333------------------------------|
D|----------55555555----------55555555---------------------|

G|---------------------------------------------------------|
D|---------------------------------------------------------|
A|-55555555-77777777---------------------------------------|
D|---------------------------------------------------------|

G|---------------------------------------------------------|
D|---------------------------------------------------------|
A|-3333-2222-00000000-5555---------------------------------|
D|---------------------------------------------------------|

G|---------------------------------------------------------|
D|---------------------------------------------------------|
A|-3333-2222-0000------------------------------------------|
D|---------------------------------------------------------|

Solo:

G|---------------------------------------------------------|
D|---------------------------------------------------------|
A|-33333333------------------------------------------------|
D|----------22222222---------------------------------------|(x4)

Verse 2:

G|---------------------------------------------------------|
D|---------------------------------------------------------|
A|-00000000-77777777-55555555-33333333---------------------|
D|---------------------------------------------------------|(x2)

G|---------------------------------------------------------|
D|---------------------------------------------------------|
A|-55555555-33333333(x2)-----------------------------------|
D|---------------------------------------------------------|

Last chorus:

G|---------------------------------------------------------|
D|---------------------------------------------------------|
A|-33333333----------33333333------------------------------|
D|----------55555555----------55555555---------------------|

G|---------------------------------------------------------|
D|---------------------------------------------------------|
A|-55555555-77777777---------------------------------------|
D|---------------------------------------------------------|

G|---------------------------------------------------------|
D|---------------------------------------------------------|
A|-3333-2222-00000000-5555---------------------------------|
D|---------------------------------------------------------|

G|---------------------------------------------------------|
D|---------------------------------------------------------|
A|-3333-2222-0000-3~---------------------------------------|
D|---------------------------------------------------------|

There are only 2 verse because on the first one there is no bass.

            
            
Suggest correction
Creating personal tab
Creating personal tab
You can edit any tab online and save it as your Personal.

You can edit, replace or remove any tab part or add personal notes – all changes will be seen only by you.

Personal tabs can be accessed anytime from any device, even offline.
Learn more »
comments
print report bad tab
2 comments total.
0 reply
Teh D Bot 11,992 Aug 30, 2013 04:25 PM

You are missing all the fills.

guest
You may want to rate the tab now too:
select rating
Wanna post a correction for this tab? Suggest correction