Oops, an error
Loading. Please wait.

Critical Acclaim Bass Tab

version 1
version 1
55,973 views 24 this week
15 commentsread comments
1 2 3 4 5
excellent!
x 63
add to favorites
launch autoscroll
font size
0
reset
guitar tuner
Autoscroll
slow
fast
+/-
esc
set tempo
stop
Help us to improve Ultimate-Guitar.com Take our survey!
×
Author
Difficulty
Tuning
intermediate
D A D G B E
Critical Acclaim
Avenged Sevenfold
tabbed by avenged sevenfold alex

tuning drop d (D,A,D,G)


organ intro

(0:25)
|--------------------------------|
|--------------------------------|
|--------------------------------|
|-12~----10~----8~--10~--12~-----|x2

(0:48)
|---------------------------|
|---------------------------|
|---------------------------|
|-0000000000000000000000000-| x2

(0:58)
|----------------------------------------|
|----------------------------------------|
|----------------------------------------|
|-00000000--00000000--00000000--00000000-|x2

(1:09)
|--------------------------------|
|--------------------------------|
|--------------------------------|
|-0-0010-0--0011--0-0010-0--0011-|x2

|--------------------------------|
|--------------------------------|
|--------------------------------|
|-0-0010-0000011--0-0010-0000011-|x2

(1:37)
|--------------------------------|
|--------------------------------|
|--------------------------------|
|-0~----2~----8~----7~-----------|

(1:51)
|--------------------------------|
|--------------------------------|
|--------------------------------|
|-1-0-00000000-1-0---------------|x2

|--------------------------------|
|--------------------------------|
|--------------------------------|
|-1-0-00000000-1-0-00000000------|

|--------------------------------|
|--------------------------------|
|--------------------------------|
|-1-0-00000000-1-0-00000000--31~-|

(2:06)
|----------------------------------------|
|----------------------------------------|
|----------------------------------------|
|-00000000--00000000--00000000--0~-------|

(2:11)
|--------------------------------|
|--------------------------------|
|--------------------------------|
|-0-0010-0--0011--0-0010-0--0011-|x2

|--------------------------------|
|--------------------------------|
|--------------------------------|
|-0-0010-0000011--0-0010-0000011-|x2

(2:39)
|--------------------------------|
|--------------------------------|
|--------------------------------|
|-0~----2~----8~----7~-----------|

(2:53)
|--------------------------------|
|--------------------------------|
|--------------------------------|
|-1-0-00000000-1-0---------------|x2

|--------------------------------|
|--------------------------------|
|--------------------------------|
|-1-0-00000000-1-0-00000000------|

|--------------------------------|
|--------------------------------|
|--------------------------------|
|-1-0-00000000-1-0-00000000--31~-|

(3:09)
|---------------------------------------------------------|
|---------------------------------------------------------|
|---------------------------------------------------------|
|-5~---10~---7~---12~---12-11-10~-9~-13~---12~---0~---10~-|


|---------------------------------------------------------|
|---------------------------------------------------------|
|---------------------------------------------------------|
|-5~---10~---7~---12~---12-11-10~-9~-13~---12~---0~---12~-|

(3:51) guitar solo 
|--------------------------------|
|--------------------------------|
|--------------------------------|
|-1-0-00000000-1-0---------------|x2

|--------------------------------|
|--------------------------------|
|--------------------------------|
|-1-0-00000000-1-0-00000000------|x2

|--------------------------------|
|--------------------------------|
|--------------------------------|
|-6-5-55555555-6-5-55555555------|x2

|------------------------------------------------|
|------------------------------------------------|
|------------------------------------------------|
|-11-10-1010101010101010-11-10-1010101010101010--|x2

|--------------------------------|
|--------------------------------|
|--------------------------------|
|-8-7-77777777-8-7-77777777------|x2

(4:26)
|----------|
|----------|
|----------|
|-0~-------|

|--------------------------------|
|--------------------------------|
|--------------------------------|
|-0-0010-0000011--0-0010-0000011-|x4

|-----------------------------------------------------------------|
|-----------------------------------------------------------------|
|-----------------------------------------------------------------|
|-0-0-0-0-0-0-0-0-2-2-2-2-2-2-2-2-8-8-8-8-8-8-8-8-7-7-7-7-7-7-7-7-|x2

|----------------------------||
|----------------------------||
|----------------------------||
|-00000000000000000000000000-||

please rate, hope its ok, keep rockin'




Suggest correction
comments
print report bad tab
15 comments total. Showing first comments.
0 reply
bass_boy92 10 wrote on August 30 2007, 02:08 pm

nice tab 5*

0 reply
rrdurow@charter 20 wrote on August 30 2007, 07:35 pm

sweet tab
a7x for life

0 reply
ChikiChikiwa 73 wrote on September 8 2007, 08:51 am

100% Correct I reckon.
Sweet song + sweet tab. Nice one.

guest
You may want to rate the tab now too:
select rating
Please do not post tabs as comments. Select "correction" instead!