Oops, an error
Loading. Please wait.

Critical Acclaim Bass Tab

version 2
version 2
4,922 views 6 this week
no commentswrite comment
1 2 3 4 5
accurate
x 6
add to favorites
launch autoscroll
font size
0
reset
guitar tuner
Tab Pro tools
  • play this tab
  • loop segment
  • change instrument
  • show fretboard
  • metronome
×
Best way to learn
"Critical Acclaim"
Autoscroll
slow
fast
+/-
esc
set tempo
stop
Contributor
Song: Critical Acclaim
Artist: Avenged Sevenfold
Album: Avenged Sevenfold

Great song with a simple bass line. Note the changes in time signature throughout. 
Notes are arranged according to the timing of the song. Print using Courier New, 
size 9 for best formatting. Enjoy!

INTRO ( :  )

G|----------------|----------------|----------------|----------------|
D|----------------|----------------|----------------|----------------|
A|----------------|3---------------|1-------3-------|----------------|
D|0---------------|----------------|----------------|0---------------|  x2

G|-|------------|------------|------------|------------|
D|3|------------|------------|------------|------------|
A|4|------------|------------|------------|------------|
D|-|000000000000|000000000000|000000000000|000000000000|  x2

G|------------|------------|------------|------------|
D|------------|------------|------------|------------|
A|------------|------------|------------|------------|
D|00000000----|00000000----|00000000----|00000000----|

G|------------|------------|------------|------------|
D|------------|------------|------------|------------|
A|------------|------------|------------|------------|
D|00000000----|00000000----|00000000----|------------|

VERSE 1   ( :  )

G|-|----------------|----------------|----------------|----------------|
D|4|----------------|----------------|----------------|----------------|
A|4|----------------|----------------|----------------|----------------|
D|-|0-----001-0---0-|------001p0-1/3-|0-----001-0---0-|------001p0-1/3-|  x2

G|----------------|----------------|----------------|----------------|
D|----------------|----------------|----------------|----------------|
A|----------------|----------------|----------------|----------------|
D|0-----001-0---0-|0-0-0-0-1p0-1/3-|0-----001-0---0-|0-0-0-0-1p0-1/3-|  x2

CHORUS 1   ( :  )

G|----------------|----------------|----------------|----------------|
D|----------------|----------------|----------------|----------------|
A|----------------|----------------|----------------|----------------|
D|0~~~~~~~~~~~~~~~|(0)-------------|2~~~~~~~~~~~~~~~|(2)-------------|

G|----------------|----------------|----------------|----------------|
D|----------------|----------------|----------------|----------------|
A|1~~~~~~~~~~~~~~~|(1)-------------|0~~~~~~~~~~~~~~~|(0)-------------|
D|----------------|----------------|----------------|----------------|


G|----------------|----------------|----------------|----------------|
D|----------------|----------------|----------------|----------------|
A|----------------|----------------|----------------|----------------|
D|1p0~~~~~~~~~~~~~|(0)~~~~~~~~~~~~~|(0)~~~~~~~~~~~~~|(0)-------------|  x2

G|----------------|
D|----------------|
A|----------------|
D|1---------------|


PRE-VERSE 2   ( :  )

G|-|------------|------------|------------|------------|
D|3|------------|------------|------------|------------|
A|4|------------|------------|------------|------------|
D|-|00000000----|00000000----|00000000----|------------|


VERSE 2 -> Same as VERSE 1

CHORUS 2 -> Same as CHORUS 1

INTERLUDE   ( :  )

G|-|------------|------------|------------|------------|
D|3|------------|------------|------------|------------|
A|4|------------|------------|3---3-3---3-|3---3---3---|
D|-|5---5-5---5-|5---5---5---|------------|------------|

G|------------|------------|------------|------------|
D|------------|------------|------------|--------8-7-|
A|------------|------------|------------|------------|
D|3---3-3---3-|3---3---3---|8---8-8---8-|8---8-------|

G|------------|------------|------------|------------|
D|6---6-------|------------|------------|------------|
A|------------|------------|------------|3---3-3-3---|
D|------6---6-|6---6---6---|5---5-5---5-|------------|

G|------------|------------|------------|------------|
D|------------|------------|------------|------------|
A|5---5-5---5-|------------|------------|------------|
D|------------|0---0-0-0---|5---5---5---|5-5-5-5-5-5-|

GUITAR SOLO   ( :  )

G|------------|------------|------------|------------|
D|------------|------------|------------|------------|
A|------------|------------|3---3-3---3-|3---3---3---|
D|5---5-5---5-|5---5---5---|------------|------------|

G|------------|------------|------------|------------|
D|------------|------------|------------|--------8-7-|
A|------------|------------|------------|------------|
D|3---3-3---3-|3---3---3---|8---8-8---8-|8---8-------|

G|------------|------------|------------|------------|
D|6---6-6---6-|6---6---6---|------------|------------|
A|------------|------------|------------|3---3-3-3---|
D|------------|------------|5---5-5---5-|------------|

G|------------|------------|------------|------------|
D|------------|------------|------------|------------|
A|------------|------------|------------|------------|
D|7---7-7---7-|7---7---7---|7---7-7---7-|7---7---7---|


G|-|----------------|----------------|----------------|----------------|
D|4|----------------|----------------|----------------|----------------|
A|4|----------------|----------------|----------------|----------------|
D|-|1p0~~~~~~~~~~~~~|(0)~~~~~~~~~~~~~|(0)~~~~~~~~~~~~~|(0)-------------|


G|----------------|----------------|----------------|----------------|
D|----------------|----------------|----------------|----------------|
A|----------------|----------------|----------------|----------------|
D|1p0-----00000000|1p0-----00000000|1p0-----00000000|1p0-----00000000|

G|----------------|----------------|----------------|----------------|
D|----------------|----------------|----------------|----------------|
A|----------------|----------------|----------------|----------------|
D|6p5-----55555555|6p5-----55555555|6p5-----55555555|6p5-----55555555|

G|----------------|----------------|----------------|----------------|
D|----------------|----------------|----------------|----------------|
A|4p3-----33333333|4p3-----33333333|4p3-----33333333|4p3-----33333333|
D|----------------|----------------|----------------|----------------|

G|----------------|----------------|----------------|----------------|
D|----------------|----------------|----------------|----------------|
A|----------------|----------------|----------------|----------------|
D|8p7-----77777777|8p7-----77777777|8p7-----77777777|8p7-----77777777|

G|----------------|
D|----------------|
A|----------------|
D|0~~~~~~~~~~~~~~~|


VERSE 3   ( :  )

G|----------------|----------------|----------------|----------------|
D|----------------|----------------|----------------|----------------|
A|----------------|----------------|----------------|----------------|
D|0-----001-0---0-|0-0-0-0-1p0-1/3-|0-----001-0---0-|0-0-0-0-1p0-1/3-|  x2


CHORUS 3

G|----------------|----------------|----------------|----------------|
D|----------------|----------------|----------------|----------------|
A|----------------|----------------|----------------|----------------|
D|0~~~~~~~~~~~~~~~|(0)-------------|2~~~~~~~~~~~~~~~|(2)-------------|  \
                                                                        |  x2
G|----------------|----------------|----------------|----------------|  /
D|----------------|----------------|----------------|----------------|
A|1~~~~~~~~~~~~~~~|(1)-------------|0~~~~~~~~~~~~~~~|(0)-------------|
D|----------------|----------------|----------------|----------------|

G|-|------------|------------|------------|------------|------------|
D|3|------------|------------|------------|------------|------------|
A|4|------------|------------|------------|------------|------------|
D|-|000000000000|000000000000|000000000000|000000000000|0-----------|    - :  


Symbol Legend:

x2  =  Play this section twice
p   =  Pull-off
/   =  Slide up
~   =  Let note ring
(0)  =  Let note ring into next bar

comments
print report bad tab
I want to post or [tab]
guest
You may want to rate the tab now too:
select rating
Please do not post tabs as comments. Select "correction" instead!