Oops, an error
Loading. Please wait.

Critical Acclaim Tab

version 7
17,273 views 162 this week
3 commentsread comments
1 2 3 4 5
x 6
add to favorites
launch autoscroll
font size
0
reset
how to read this tab
guitar tuner
Autoscroll
slow
fast
+/-
esc
set tempo
stop
Help us to improve Ultimate-Guitar.com Take our survey!
×
Author
Difficulty
Tuning
advanced
D A D G B E
[Intro]
e|-/13-10--/13-12~---15-17-15-13-12—-12fbr~-10-12-10~--|
b|-------10------------------------13------------------|
g|-----------------------------------------------------|2x
D|-----------------------------------------------------|
A|-----------------------------------------------------|
D|-----------------------------------------------------|

e|-16~~~~--16~~~-16~~~~-----16~~~-16~~~-----16~~~-16~~~-----16~~~-16~~-----16~~~-16~~-----16~~~-16~|
b|-19fb~~--19fb~-19fb~~-----19fb~-19fb~-----19fb~-19fb~-----19fb~-19b~-----19fb~-19b~-----19fb~-19b|
g|-------------------------------------------------------------------------------------------------|
D|-------------------------------------------------------------------------------------------------|
A|-------------------------------------------------------------------------------------------------|
D|-------------------------------------------------------------------------------------------------|

[Breakdown]
e|---------------16~~~~-|     |---------------19~~~~---|
b|---------------19fb~~-|     |---------------22fb~~---|
g|----------------------|6x   |------------------------|
D|----------------------|     |------------------------|
A|----------------------|     |------------------------|
D|-0-0-0-0-0-0-0--------|     |-0-0-0-0-0-0-0----------|
PM|-------------|             |------------------------|

[Verse]
e|--------------------------------|
b|--------------------------------|
g|--------------------------------|4x
D|-0~-------1-0-0--------1—-1--0--|
A|-0~-------1-0-0--------1—-1--0--|
D|-0~---0-0-1-0-0----0-0-1—-1--0--|
PM      |--|         |--|

e|---------------------------------------|
b|---------------------------------------|
g|---------------------------------------|3x
D|-0~-------1-0-0-------------0-1—-1-0---|
A|-0~-------1-0-0-------------0-1—-1-0---|
D|-0~---0-0-1-0-0----0-0-0-0—-0-1—-1-0---|
PM      |--|         |-------------------|

e|-17------16----------------------------------|
b|---18------18-------------------------18~~~~-|
g|-----19------19-----------------------20fb~~-|
D|-------19------19-18—-17-----------15--------|
A|--------------------19—-20-16-17-19----------|
D|---------------------------------------------|

[Chorus]
e|------------------------------|
b|------------------------------|
g|-7~----7/9—-9\7—-6---6/7/9/10-|
D|------------------------------|
A|-5~----5/7—-7\5—-4---4/5/7/8--|
D|------------------------------|

e|-----------------------------|
b|-----------------------------|
g|-----------------------------|3x
D|-1-0-------------------1-0---|
A|-1-0-------------------1-0---|
D|-1-0—-0-0-0-0-0-0-0-0--1-0---|
       |-----------------------|

 
e|----------------------------------------------------------------------|
b|----------------------------------------------------------------------|
g|----------------------------------------------------------------------|
D|------------------1-0--------------------1-0-------------1-3---1~-----|
A|------------------1-0--------------------1-0-------------1-3---1~-----|
D|-0-0-0-0-0-0-0-0--1-0---0-0-0-0-0-0-0-0--1-0----0-0-0-0--1-3---1~-----|
  |---------------|       |--------------|        |---------------------|

Back to:
[Breakdown]
[Verse]
[Chorus]

[Pre-Chorus]
e|-------------------------------------------------------|
b|-------------------------------------------------------|
g|-------5-----------3-----------------5-----------------|
D|-5-----5(6x)-3-----3(6x)-6-----5-----5(3x)-0-----5-----|
A|-5(6x)-3-----3(6x)-1-----6(6x)-5(3x)-3-----0(3x)-5(6x)-|
D|-5-----------3-----------6-----5-----------0-----5-----|

[Interlude]
e|-/10-8-7------8---8-10-11~~/15-11----11---------------------/13-11-10--------------------------|
b|--------8~------8----------------13----13-11-10---/11—-11-13---------11--11-13-11-13b-13fbr~~--|
g|-----------------------------------12----------10----10----------------10----------------------|
D|-----------------------------------------------------------------------------------------------|
A|-----------------------------------------------------------------------------------------------|
D|-----------------------------------------------------------------------------------------------|

e|-----------------------------------------17pb~~-----17~~~~---|
b|-15-16-15~--13-16~~~-/14~--15-17-18-17-18------18-17---------|
g|-------------------------------------------------------------|
D|-------------------------------------------------------------|
A|-------------------------------------------------------------|
D|-------------------------------------------------------------|

e|-----------------------------|
b|-----------------------------|
g|-----------------------------|2x
D|-1-0-------------------1-0---|
A|-1-0-------------------1-0---|
D|-1-0—-0-0-0-0-0-0-0-0--1-0---|
        |----------------------|
[Solo]
e|-/2-3-5-3-2-3-5---5h6p5p3-----5p3-----3--------------------------------------|
b|----------------—---------7p4-----7p4---7p4h7p4\3h7p4p3/4--------------------|
g|----------------------------------------------------------4-3-4---3----------|
D|----------------------------------------------------------------5---/4~------|
A|-----------------------------------------------------------------------------|
D|-----------------------------------------------------------------------------|

e|-/9-10-13-10-9-10-13----------------7h8h10p8p7---------------------------------|
b|---------------------8h9h12h-8h9h12------------9h12p9p8------------------------|
g|--------------------------------------------------------10-8-7-8-7-5-8-7-------|
D|-------------------------------------------------------------------------9~----|
A|-------------------------------------------------------------------------------|
D|-------------------------------------------------------------------------------|

e|-/12-13-15-13-12-13-15---12-13-15-12-13-15-12-13-15-12-13-15-12-13-15-12-13-15-12*~--|
B|-------------------------------------------------------------------------------------|
G|-------------------------------------------------------------------------------------|
D|-------------------------------------------------------------------------------------|
A|-------------------------------------------------------------------------------------|
D|-------------------------------------------------------------------------------------|

e|-/9-10-12-10-9-10-12\--/9-10-12/15-13-12-13/18-17-15-20b-20fb~~~-------|
b|-----------------------------------------------------------------------|
g|-----------------------------------------------------------------------|
D|-----------------------------------------------------------------------|
A|-----------------------------------------------------------------------|
D|-----------------------------------------------------------------------|

e|-----------------------------------------------------------------------|
b|-----------------------------------------------------------------------|
g|-----------------------------------------------------------------------|3x
D|-0~-------1-0-0-------------0-1—-1/3-----------------------------------|
A|-0~-------1-0-0-------------0-1—-1/3-----------------------------------|
D|-0~---0-0-1-0-0----0-0-0-0—-0-1—-1/3-----------------------------------|
PM      |--|         |---------------------------------------------------|

e|-17------16----------------------------------|
b|---18------18-------------------------18~~~~-|
g|-----19------19-----------------------20fb~~-|
D|-------19------19-18—-17-----------15--------|
A|--------------------19—-20-16-17-19----------|
D|---------------------------------------------|

[Chorus]

[Outro]
e|-----------------------------------------------------------|
b|-----------------------------------------------------------|
g|-/7~--/7-9-10-7-9-5—-/9~--9-7-5-7-----5-7---5~--/6-7-9-10--|
D|---------------------------------/8-/8----8----------------|
A|-----------------------------------------------------------|
D|-----------------------------------------------------------|

e|-16~~~~--16~~~-16~~~~-----16~~~-16~~~-----16~~~-16~~~-----16~~~-16~~--|
b|-19fb~~--19fb~-19fb~~-----19fb~-19fb~-----19fb~-19fb~-----19fb~-19b~--|
g|----------------------------------------------------------------------|
D|----------------------------------------------------------------------|
A|----------------------------------------------------------------------|
D|----------------------------------------------------------------------|

 

************************************
 
| /   slide up
| \   slide down
| *   harmonic
| fb  full bend
| b   bending
| ~   let ring
| |-| Palm Mute
| h   hammer on
| p   pull off

************************************
Suggest correction
comments
print report bad tab
3 comments total.
+1 reply
Anarki01 10 Oct 03, 2012 08:26 AM

Finally! Someone got the solo right!

+1 reply
7SynysterxGates 81 Jul 28, 2013 05:32 PM

Great tab man.(:

0 reply
eza fernanda 31 Dec 27, 2013 10:44 PM

thanks bro..

guest
You may want to rate the tab now too:
select rating
Wanna post a correction for this tab? Suggest correction