Oops, an error
Loading. Please wait.

Critical Acclaim Tab

version 8
430 views 1 this week
no commentswrite comment
1 2 3 4 5
please rate
add to favorites
launch autoscroll
font size
0
reset
how to read this tab
guitar tuner
Tab Pro tools
  • play this tab
  • loop segment
  • change instrument
  • show fretboard
  • metronome
×
Best way to learn
"Critical Acclaim"
Autoscroll
slow
fast
+/-
esc
set tempo
stop
Contributor
Tuning
D A D G B E
So this is my first tab please leave feedback and comment on any thing i might have
missed some parts might be iffy since I learned it all by ear, but I'm about 99% sure
everything is right I played along to live videos where it's easier to hear if all the 
notes are correct. Just a note I don't have the fast parts for dueling guitars so please feel
free to add that.
-JVENGEANCE6661

Tuning: Drop D standard

Legend:
/=Slide up into
*=palm mute
b= bend
br=bend then release
ph= pinch harmonic
~= hold out or vibrato


Intro:

Guitar 1:
e:-/13-10----/13-12-15-17-15-13-12--/13-12-10-12-10~~~-----------|
b:-------10-----------------------13-----------------------------|
g:---------------------------------------------------------------|x2
d:---------------------------------------------------------------|
a:---------------------------------------------------------------|
d:---------------------------------------------------------------|

Guitar 2: Play on G1's second time around

e:-/17-13----/22-20-------------------/17-15-13-15-13~~----------|
b:--------15--------17-18-17-15----------------------------------|
g:------------------------------/17-14---------------------------|
d:---------------------------------------------------------------|
a:---------------------------------------------------------------|
d:---------------------------------------------------------------|

Guitar 3(this part is a little iffy):

e:---------------------------------------------------------------|
b:---------------------------------------------------------------|
g:------5~~~-3~~~--5~~~------------------------------------------|x2
d:-0~~~-5~~~-3~~~--5~~~-0~~~-------------------------------------|
a:-0~~~-3~~~-1~~~--3~~~-0~~~-------------------------------------|
d:-0~~~-----------------0~~~-------------------------------------|

Guitar 1:
e:-13-13-13-13-13-13-13-13---------------------------------------|
b:-16b---16b---16b---16b-----------------------------------------|
g:---------------------------------------------------------------|X4
d:---------------------------------------------------------------|
a:---------------------------------------------------------------|
d:---------------------------------------------------------------|

Guitar 2:
e:-10-10-10-10-10-10-10-10---------------------------------------|
b:-13b---13b---13b---13b-----------------------------------------|
g:---------------------------------------------------------------|X4
d:---------------------------------------------------------------|
a:---------------------------------------------------------------|
d:---------------------------------------------------------------|

Guitar 3:
e:---------------------------------------------------------------|
b:---------------------------------------------------------------|
g:---------------------------------------------------------------|
d:---------------------------------------------------------------|
a:---------------------------------------------------------------|
d:00000000000000000000000000000000000000000000-------------------|
  ********************************************

Pre Verse:

Guitar 1:
e:-----------------13----------------------16---------------|
b:-----------------16b-X6------------------19b--------------|
g:----------------------------------------------------------|
d:----------------------------------------------------------|
a:----------------------------------------------------------|
d:-0-0-0-0-0-0-0-0---------0-0-0-0-0-0-0-0------------------|
   * * * * * * * *         * * * * * * * *
Guitar 2:
e:-----------------10----------------------13---------------|
b:-----------------13b-X6------------------16b--------------|
g:----------------------------------------------------------|
d:----------------------------------------------------------|
a:----------------------------------------------------------|
d:-0-0-0-0-0-0-0-0---------0-0-0-0-0-0-0-0------------------|
   * * * * * * * *         * * * * * * * *
Verse: Both guitars
e:---------------------------------------------------------------|
b:---------------------------------------------------------------|
g:---------------------------------------------------------------|
d:----------------------------X5------------------------X-3------|
a:-0-----------0----0---------0-----0--------0-------------------|
d:-0--0-0-1-0--0----0-1-1b(3)-0-----0--0-0-1-0--0-0-0-0-0-1-1b(3)|
      * *                              * *      * * * * *
Pre Chorus:

Guitar 1:
e:-17-13-------16-13--------------------------------------|
b:-------15---------15------------------------------------|
g:----------14--------14-13--12------------12~~~~~--------|
d:-------------------------14--15-12-13-15----------------|
a:--------------------------------------------------------|
d:--------------------------------------------------------|

Guitar 2:
e:---------------------------------------------------------------|
b:---------------------------------------------------------------|
g:---------------------------------------------------------------|
d:---------------------------------------------------------------|
a:---0--------0--------------------------------------------------|
d:---0--0-0-1-0--0-0-0-0-0-1-1b(3)-------------------------------|
        * *      * * * * *
Chorus

Guitar 1:
e:---------------------------------------------------------------|
b:---------------------------------------------------------------|
g:-7~~~-9~~~-7~~~-6~~~-6-7-9-10----------------------------------|
d:-X----X----X----X----X-X-X-X-----------------------------------|
a:-5~~~-7~~~-5~~~-4~~~-4-5-7-8-----------------------------------|
d:---------------------------------------------------------------|

Guitar 2:
e:---------------------------------------------------------------|
b:---------------------------------------------------------------|
g:------------3~~~-2~~~~~~~~~~~~~~-------------------------------|
d:-0~~~-2~~~--3~~~-2~~~~~~~~~~~~~~-------------------------------|
a:-0~~~-3~~~--1~~~-0~~~~~~~~~~~~~~-------------------------------|
d:-0~~~-2~~~-----------------------------------------------------|

Breakdown Thingy:
e:--------------------------------------------------------------------|
b:--------------------------------------------------------------------|
g:--------------------------------------------------------------------|
d:----------------------------------------------------------------X2--|
a:-1-0-----------------1-0-X2--1-0-----------------1-0----------------|
d:-1-0-0-0-0-0-0-0-0-0-1-0-----1-0-0-0-0-0-0-0-0-0-1-0-0-0-0-0-0-0-0-0|
     * * * * * * * * *             * * * * * * * *     * * * * * * * *
e:---------------------------------------------------------------|
b:---------------------------------------------------------------|
g:---------------------------------------------------------------|
d:-------------1-3-1~~~~-----------------------------------------|
a:-1-0---------1-3-1~~~~-----------------------------------------|
d:-1-0-0-0-0-0-1-3-1~~~~-----------------------------------------|
       * * * *
Repeat Pre Verse(only 2 then 1), Verse, Pre Chorus, Chorus and Breakdown.

Bridge:

e:---------------------------------------------------------------|
b:---------------------------------------------------------------|
g:----------55555555----------33333333---------------------------|
d:-55555555-55555555-33333333-33333333-----66666666-5555---------|
a:-55555555-33333333-33333333-11111111-1-0-66666666-5555---------|
d:-55555555----------33333333--------------66666666-5555---------|


e:---------------------------------------------------------------|
b:---------------------------------------------------------------|
g:-555555-777777-------------------------------------------------|
d:-555555-777777-000000-55555555---------------------------------|
a:-333333-555555-000000-55555555---------------------------------|
d:---------------000000-55555555---------------------------------|

Solo A

For Guitar 2 just play the bridge under it.

Guitar 1:
e:-/10-8-7-8-8-10-11-/15-11----11-/8-6-5-6-6-8-/13-11-10-------------|
b:--------8-8--------------13-----------6-6--------------11--11------|
g:---------------------------12----------------------------10--------|
d:-------------------------------------------------------------------|
a:-------------------------------------------------------------------|
d:-------------------------------------------------------------------|


e:------------------------------------------------------17b------17b-|
b:-13-11-13br-13br-13-15-16-15-13-15ph-14-15-17-18-17-18---18-17-----|
g:-------------------------------------------------------------------|
d:-------------------------------------------------------------------|
a:-------------------------------------------------------------------|
d:-------------------------------------------------------------------|

Pre Solo B:
1
e:---------------------------------------------------------------|
b:---------------------------------------------------------------|
g:---------------------------------------------------------------|
d:---------------------------------------------------------------|
a:-1-0-----------------1-0---------------------------------------|X2
d:-1-0-0-0-0-0-0-0-0-0-1-0---------------------------------------|
       * * * * * * * *
Solo B:

Guitar 1:
e:---------------------------------------------------------------|
b:---------------------------------------------------------------|
g:-/11-12-14-12-11-12-14-12~~~-14-12-11~~~~----------------------|
d:---------------------------------------------------------------|
a:---------------------------------------------------------------|
d:---------------------------------------------------------------|

Guitar 2:
e:---------------------------------------------------------------|
b:---------------------------------------------------------------|
g:--/7-8-11-8-7-8-11-8~~-11-8-7~~~~~~----------------------------|
d:---------------------------------------------------------------|
a:---------------------------------------------------------------|
d:---------------------------------------------------------------|


Guitar 1:
e:---------------------------------------------------------------|
b:-/12-13-16-13-12-13-16-13~~~-16-13-12~~~-----------------------|
g:---------------------------------------------------------------|
d:---------------------------------------------------------------|
a:---------------------------------------------------------------|
d:---------------------------------------------------------------|

Guitar 2:

e:---------------------------------------------------------------|
b:---------------------------------------------------------------|
g:-/12-13-16-13-12-13-16-13~~~-16-13-12~~~-----------------------|
d:---------------------------------------------------------------|
a:---------------------------------------------------------------|
d:---------------------------------------------------------------|

Guitar 1:
e:-/12-13-15-13-12-13-15-121315121315121315121315-12ph-----------|
b:---------------------------------------------------------------|
g:---------------------------------------------------------------|
d:---------------------------------------------------------------|
a:---------------------------------------------------------------|
d:---------------------------------------------------------------|

Guitar 2:
e:---------------------------------------------------------------|
b:-/13-14-17-14-13-14-17-131417131417131417131417-13ph-----------|
g:---------------------------------------------------------------|
d:---------------------------------------------------------------|
a:---------------------------------------------------------------|
d:---------------------------------------------------------------|

Guitar 1:
e:----------------------------------------18-17--17-20-20b-------|
b:/14-15-17-15-14-15-17-/14-15-17-20-18-17-----17----------------|
g:---------------------------------------------------------------|
d:---------------------------------------------------------------|
a:---------------------------------------------------------------|
d:---------------------------------------------------------------|

Guitar 2:
e:----------------------------------------/13-12--15~-15b--------|
b:-/10-11-14-11-10-11-14-/10-11-14-17-15-14------14--------------|
g:---------------------------------------------------------------|
d:---------------------------------------------------------------|
a:---------------------------------------------------------------|
d:---------------------------------------------------------------|

Post Solo

e:---------------------------------------------------------------|
b:---------------------------------------------------------------|
g:---------------------------------------------------------------|
d:---------------------------------------------------------------|X2
a:---0--------0--------------------------------------------------|
d:---0--0-0-1-0--0-0-0-0-0-1-1b(3)-------------------------------|
        * *      * * * * *
Guitar 1:
e:-17-13-------16-13--------------------------------------|
b:-------15---------15------------------------------------|
g:----------14--------14-13--12------------12~~~~~--------|
d:-------------------------14--15-12-13-15----------------|
a:--------------------------------------------------------|
d:--------------------------------------------------------|

Guitar 2:
e:---------------------------------------------------------------|
b:---------------------------------------------------------------|
g:---------------------------------------------------------------|
d:---------------------------------------------------------------|
a:---0--------0--------------------------------------------------|
d:---0--0-0-1-0--0-0-0-0-0-1-1b(3)-------------------------------|
        * *      * * * * *
Play Chorus

Guitar 1:
e:---------------------------------------------------------------|
b:-7~~-7-9-10-7-9-5--8-8-8-8-6--------------------9-9-10-12-14---|
g:-x~~-x-x-x--x-x-x-------------9-10-7-/7-9-10-9--x-x-x--x--x----|
d:-5~~-5-7-8--5-7-3-------------------------------7-7-8--10-12---|
a:---------------------------------------------------------------|
d:---------------------------------------------------------------|

Guitar 2:
e:---------------------------------------------------------------|
b:---------------------------------------------------------------|
g:------------------3333333--------------------------------------|
d:-0~~~~~------2~~~-3333333---to end of guitar 1-----------------|
a:-0~~~~~~-----3~~~-1111111--------------------------------------|
d:-0~~~~~~~----2~~~----------------------------------------------|

Outro:

Guitar 1:
e:-13-13-13-13-13-13-13-13---------------------------------------|
b:-16b---16b---16b---16b-----------------------------------------|
g:---------------------------------------------------------------|X4
d:---------------------------------------------------------------|
a:---------------------------------------------------------------|
d:---------------------------------------------------------------|

Guitar 2:
e:-10-10-10-10-10-10-10-10---------------------------------------|
b:-13b---13b---13b---13b-----------------------------------------|
g:---------------------------------------------------------------|X4
d:---------------------------------------------------------------|
a:---------------------------------------------------------------|
d:---------------------------------------------------------------|

Guitar 3:
e:---------------------------------------------------------------|
b:---------------------------------------------------------------|
g:---------------------------------------------------------------|
d:---------------------------------------------------------------|
a:---------------------------------------------------------------|
d:00000000000000000000000000000000000000000000-------------------|
  ********************************************
comments
We did not receive enough feedback on this tab! Please rate:
print report bad tab
1 2 3 4 5
I want to post or [tab]
guest
You may want to rate the tab now too:
select rating
Please do not post tabs as comments. Select "correction" instead!