Oops, an error
Loading. Please wait.

Crossroads Tab

version 1
version 1

Intro

Whole song

Interactive

5,524 views 3 this week
3 commentsread comments
1 2 3 4 5
worth learning
x 6
add to favorites
launch autoscroll
font size
0
reset
how to read this tab
guitar tuner
Tab Pro tools
  • play this tab
  • loop segment
  • change instrument
  • show fretboard
  • metronome
×
Best way to learn
"Crossroads"
Autoscroll
slow
fast
+/-
esc
set tempo
stop
Contributor
Tuning
D A D G B E
Artist: Avenged Sevenfold
Album: Avenged Sevenfold [B-Side]
Song: Crossroads
Tuning: Drop D

Key
------------
h-Hammer On
p-Pull Off
*-Palm Mute
~-Let Ring
------------

A work in progress but i will have it done within the next couple of weeks. Everything 
99% accurate. I am going to go over it and tweek what needs to be done. Please Rate!!

 Intro                    |alternate pick|
e|----------------------------------------------|
B|-----------------------12-12-12-12-12-12------|
G|----------------------------------------------|
D|-0h8h9--0-0-0-0-0-0---------------------------| X8
A|-0h8h9--0-0-0-0-0-0---------------------------|
D|-0h8h9--0-0-0-0-0-0---------------------------|
          *   *   *

e|---------------------|
B|---------------------|
G|---------------------|
D|----8~---7-6-5-------|
A|----8~---7-6-5-------|
D|----8~---7-6-5-------|

 Verse                    |alternate pick|
e|------------------------------------------------|
B|-----------------------12-12-12-12-12-12--------|
G|------------------------------------------------|
D|-0h8h9--0-0-0-0-0-0-----------------------------|
A|-0h8h9--0-0-0-0-0-0-----------------------------|
D|-0h8h9--0-0-0-0-0-0-----------------------------|
          *   *   *
 Pre-Chorus
e|--------------------------------------------------------------------------|
B|--------------------------------------------------------------------------|
G|-3-2----------------------------------------------------------------------|
D|-3-2-5-3-0----------------------------------------------------------------|
A|-1-0-5-3-0----------------------------------------------------------------|
D|-----5-3-0----------------------------------------------------------------|

 Chorus (trem picking)
e|--------------------------------------------------------------------------|
B|--------------------------------------------------------------------------|
G|-14-14-14-10-10-10-7-7-7-5-5-5--------------------------------------------|
D|--------------------------------------------------------------------------|
A|--------------------------------------------------------------------------|
D|--------------------------------------------------------------------------|

 Bridge
e|--------------------------------------------------------------------------|
B|--------------------------------------------------------------------------|
G|--------------------------------------------------------------------------|
D|-5-3-2-3-2-0-000-000------------------------------------------------------|
A|-5-3-2-3-2-0-000-000------------------------------------------------------|
D|-5-3-2-3-2-0-000-000------------------------------------------------------|
comments
print report bad tab
3 comments total.
0 reply
SynGatesFan1 wrote on February 6 2008, 02:15 pm

The whole thing is wrong!

0 reply
kennydabomb wrote on February 12 2008, 12:02 am

you copied me on the last part. what a dumbass

0 reply
mini_gates666 wrote on May 25 2008, 10:38 am

this dont sound right, where the harmonised bit before the chorus?

I want to post or [tab]
guest
You may want to rate the tab now too:
select rating
Please do not post tabs as comments. Select "correction" instead!