Oops, an error
Loading. Please wait.

Dancing Dead Tab

version 1
version 1

Whole song

110,244 views 36 this week
22 commentsread comments
1 2 3 4 5
x 22
add to favorites
launch autoscroll
font size
0
reset
how to read this tab
guitar tuner
Autoscroll
slow
fast
+/-
esc
set tempo
stop
Difficulty
Tuning
intermediate
D A D G B E
Dancing Dead - Avenged Sevenfold
Tabbed by:Mitch 
Email:ihawk14@sbcglobal.net
Tuning:Drop D

[Intro]
guitar 1
e|-----------------------------------------------------------------------------|
B|-----------------------------------------------------------------------------|
G|-----------3---3-------------------------------------------------------------|    
D|-0-0-------3---3-x14--7---7------0-3-3-----3-3~-3-3---3/5--------(0~)--------|-x2
A|-0-0-x14---1---1------7---7-x14--0-3-3-x5--3-3~-3-3---3/5--------(0~)--------|
D|-0-0------------------7---7------0-3-3-----3-3~-3-3---3/5--------(0~)--------|
    pm......    ......     ......     .......     ....         (on 2nd time)

guitar 2
e|--------------------------------------------------------------------------|
B|--------------------------------------------------------------------------|
G|-7-7-6-5-4-4--------------------------------------------------------------|
D|-------------x2-----7-7-6-5-4-3-------------------------------------------|
A|-5-5-4-3-2-1--------------------------------------------------------------|
D|--------------------7-7-6-5-4-3-------------------------------------------|

[Verse]
e|---------------------------------------------------------------------------|
B|---------------------------------------------------------------------------|
G|-7-7-6-5-4-3---------------------------------------------------------------|
D|-------------x2----3~-----\------------------------------------------------|
A|-5-5-4-3-2-1-------3~-----\-pick-slide-----then-play-intro-once------------|
D|-------------------3~-----\------------------------------------------------|

[Chorus]
guitar 1
e|---------------------------------------------------------------------------|
B|---------------------------------------------------------------------------|
G|-7-------------2------3----------------------------------------------------|
D|-7------3------2------3-x4-----(0)-----------------------------------------|
A|-5------3------0------1--------(0)-----------------------------------------|
D|-0------3----------------------(0)-----------------------------------------|

e|-10----12b13-10~---/13----15h17-13~---12----13-15--------12b13-12-10------------|
B|----13-----------------13----------------13-------15~---------------13-11-------|
G|--------------------------------------------------------------------------12----|
D|-----------------------------------------------------------------------------12-|
A|--------------------------------------------------------------------------------|
D|--------------------------------------------------------------------------------|

e|-10----12b13-10~---/13----15h17-13~---12----13-15--------12b13-12-10------------|
B|----13-----------------13----------------13-------15~---------------13-11-------|
G|--------------------------------------------------------------------------12----|
D|-----------------------------------------------------------------------------12-|
A|--------------------------------------------------------------------------------|
D|--------------------------------------------------------------------------------|

e|---------------------------------------------------------------------------|
B|-------10--13b15--------13-15b18-------15-18b20--18rb17-15-----------------|
G|----10---------------12-------------15---------------------15--------------|
D|-10---------------12-------------15----------------------------------------|
A|---------------------------------------------------------------------------|
D|---------------------------------------------------------------------------|

e|-10----12b13-10~---/13----15h17-13~---12----13-15--------12b13-12-10------------|
B|----13-----------------13----------------13-------15~---------------13-11-------|
G|--------------------------------------------------------------------------12----|
D|-----------------------------------------------------------------------------12-|
A|--------------------------------------------------------------------------------|
D|--------------------------------------------------------------------------------|

4th time thru chorus guitar 3
e|---------------------------------------------------------------------------|
B|---------------------------------------------------------------------------|
G|---------------------------------------------------------------------------|
D|---------------------------------------------------------------------------|
A|-5-3-5/8-----8----10/12-8--------------------------------------------------|
D|---------------10----------------------------------------------------------|

[Verse]
e|---------------------------------------------------------------------------|
B|---------------------------------------------------------------------------|
G|-7-7-6-5-4-3---------------------------------------------------------------|
D|-------------x2----3~-----\------------------------------------------------|
A|-5-5-4-3-2-1-------3~-----\-pick-slide-----then-play-intro-once------------|
D|-------------------3~-----\------------------------------------------------|

[Interlude]
e|---------------------------------------------------------------------------|
B|---------------------------------------------------------------------------|
G|-7~----5~----3~----2~------------------------------------------------------|
D|-7~----5~----3~----2~------------------------------------------------------|
A|-5~----3~----1~----0~------------------------------------------------------|
D|-0~------------------------------------------------------------------------|

[Breakdown]
e|---------------------------------------------------------------------------|
B|---------------------------------------------------------------------------|
G|---------------------------------------------------------------------------|
D|--000-------0-0-000--------------------------------------------------------|
A|--000-------0-0-000---however-many-times-it-does-this----------------------|
D|--000-------0-0-000--------------------------------------------------------|
  pm...............................

[Solo]
e|-----------------------------------------------------------------------|
B|-----------------------------------------8p6p5---8p5p5---8b10----------|
G|----------------------------------------------7p5-----7p5--------------|
D|-0-2-3-2-0-2-3-5-3-2-3-5-7-5-3-5-7-8-7-5-------------------------------|
A|-----------------------------------------------------------------------|
D|-----------------------------------------------------------------------|

e|-10h12p10p8-10p8-10b12-10p8------------------------------------------------|
B|---------------------------11p8-10bu-10p8-8-6-5-8-6-5----------------------|
G|------------------------------------------------------7-5------------------|
D|----------------------------------------------------------8-7-5------------|
A|----------------------------------------------------------------8-7-5------|
D|---------------------------------------------------------------------------|

                                                               (trill pick)
e|---------------------------------------------------------------(15b18)-15131515b18----------|
B|-----------------------------------------8p6p5---8p6p5---8b10---------------------15-13-15~-|
G|----------------------------------------------7p5-----7p5-----------------------------------|
D|-0-2-3-2-0-2-3-5-3-2-3-5-7-5-3-5-7-8-7-5----------------------------------------------------|
A|--------------------------------------------------------------------------------------------|
D|--------------------------------------------------------------------------------------------|
pm........................................

Guitar 1 harmony
e|-10-12-13-12-x8--12-13-15-13-x6-15b18--13-15-13-17-x5--15-17-15-13----15-13------------|
B|----trill-picked------------trill-picked---------------------------17-------17-15~-----|
G|---------------------------------------------------------------------------------------|
D|---------------------------------------------------------------------------------------|
A|---------------------------------------------------------------------------------------|
D|---------------------------------------------------------------------------------------|

Guitar 2 harmony
e|-6-8-10-8-x8------8-10-12-10-x6-12b15--10-12-10-13-x5--12-13-12-10----12-10------------|
B|----trill-picked---------trill-picked------------------------------13-------13-11------|
G|---------------------------------------------------------------------------------------|
D|---------------------------------------------------------------------------------------|
A|---------------------------------------------------------------------------------------|
D|---------------------------------------------------------------------------------------|

e|-8765----10987-----1211109-------13121110---------15bu--13-12-15bu~--------|
B|-----8765-----10987-------1211109--------13121110--------------------------|
G|---------------------------------------------------------------------------|
D|---------------------------------------------------------------------------|
A|---------------------------------------------------------------------------|
D|---------------------------------------------------------------------------|

[end Breakdown]
e|---------------------------------------------------------------------------|
B|---------------------------------------------------------------------------|
G|---------------------------------------------------------------------------|
D|-8-7-6-5----4-3-2-1----3-2-1-(0)-(leave-open-on-4th-time)------------------|
A|-8-7-6-5-x4-4-3-2-1-x4-3-2-1-(0)-x4----------------------------------------|
D|-8-7-6-5----4-3-2-1----3-2-1-(0)-------------------------------------------|

[Chorus]
guitar 1
e|---------------------------------------------------------------------------|
B|---------------------------------------------------------------------------|
G|-7-------------2------3----------------------------------------------------|
D|-7------3------2------3-x4-----(0)-----------------------------------------|
A|-5------3------0------1--------(0)-----------------------------------------|
D|-0------3----------------------(0)-----------------------------------------|

e|-10----12b13-10~---/13----15h17-13~---12----13-15--------12b13-12-10------------|
B|----13-----------------13----------------13-------15~---------------13-11-------|
G|--------------------------------------------------------------------------12----|
D|-----------------------------------------------------------------------------12-|
A|--------------------------------------------------------------------------------|
D|--------------------------------------------------------------------------------|

e|-10----12b13-10~---/13----15h17-13~---12----13-15--------12b13-12-10------------|
B|----13-----------------13----------------13-------15~---------------13-11-------|
G|--------------------------------------------------------------------------12----|
D|-----------------------------------------------------------------------------12-|
A|--------------------------------------------------------------------------------|
D|--------------------------------------------------------------------------------|

e|---------------------------------------------------------------------------|
B|-------10--13b15--------13-15b18-------15-18b20--18rb17-15-----------------|
G|----10---------------12-------------15---------------------15--------------|
D|-10---------------12-------------15----------------------------------------|
A|---------------------------------------------------------------------------|
D|---------------------------------------------------------------------------|

e|-10----12b13-10~---/13----15h17-13~---12----13-15--------12b13-12-10------------|
B|----13-----------------13----------------13-------15~---------------13-11-------|
G|--------------------------------------------------------------------------12----|
D|-----------------------------------------------------------------------------12-|
A|--------------------------------------------------------------------------------|
D|--------------------------------------------------------------------------------|
4th time thru chorus guitar 3
e|---------------------------------------------------------------------------|
B|---------------------------------------------------------------------------|
G|---------------------------------------------------------------------------|
D|---------------------------------------------------------------------------|
A|-5-3-5/8-----8----10/12-8--------------------------------------------------|
D|---------------10----------------------------------------------------------|

[Outro]
guitar 1
e|---------------------------------------------------------------------------|
B|---------------------------------------------------------------------------|
G|-7------5------3------2----------------------------------------------------|
D|-7------5------3------2--till-song-ends------------------------------------|
A|-5------3------1------0----------------------------------------------------|
D|-0-------------------------------------------------------------------------|

guitar 2(outro solo)
e|---------------------------------------------------------------------------|
B|---------------------------------------------------------------------------|
G|--/7~--9-10~-10/14/9~----9h10p9---9b10r9--7~---7-9-10--9-7~--7b9r7--7h9r6--|
D|---------------------------------------------------------------------------|
A|---------------------------------------------------------------------------|
D|---------------------------------------------------------------------------|

e|---------------------------------/15-12-12-12h15-12b13r12~-10h12p10-10b12--|
B|-----------------------/17-13-13-------------------------------------------|
G|--/7~--9-10--/17-17-14-----------------------------------------------------|
D|---------------------------------------------------------------------------|
A|---------------------------------------------------------------------------|
D|---------------------------------------------------------------------------|

e|-9h10p9---------------/17-13----------------17-13---------------------15-12|
B|--------12-11----------------15----------15-------15----------15-----------|
G|--------------12-11-9~----------14----14-------------14----14----14~-------|
D|-----------------------------------15-------------------15-----------------|
A|---------------------------------------------------------------------------|
D|---------------------------------------------------------------------------|

e|----------------15-12-------------------13-10----------------13-10---------|
B|-13----------13-------13----------13----------11----------11-------11------|
G|----12----12-------------12----12----12----------10----10-------------10---|
D|-------14-------------------14----------------------12-------------------12|
A|---------------------------------------------------------------------------|
D|---------------------------------------------------------------------------|

e-|----------12-8------------------------------------------------------------|
B|----11---------10----------------------------------------------------------|
G|-10----10---------9----9-10/15-14~--just-repeat----------------------------|
D|--------------------10-----------------------------------------------------|
A|---------------------------------------------------------------------------|
D|---------------------------------------------------------------------------|


************************************

| x    Dead note
| /    Slide up
| ~    Vibrato
| \    Slide down
| (n)  Ghost note
| h    Hammer-on
| b    Bend
| p    Pull-off
| r    Release

************************************
Suggest correction
comments
print report bad tab
22 comments total. Showing first comments.
0 reply
G0dzilla 10 Sep 16, 2008 01:49 PM

looks pretty good, great song too, but i have to ask, what is "trill picking" i wana play the solo but i have no idea what that means. sorry if i sound like a noob.

+2 reply
Seth Shadows 4,633 Sep 17, 2008 07:32 PM

Lol, some people cant do the note durations thing.

0 reply
Xx__benji__xX 218 Sep 20, 2008 12:41 AM

This song is bloody amazing.. only thing I've noticed is the chorus, instead of an A chord its a C, so either play 3rd fret on the A string, or play the 10th fret on the D string :)

guest
You may want to rate the tab now too:
select rating
Wanna post a correction for this tab? Suggest correction