Oops, an error
Loading. Please wait.

Dancing Dead bass

version 2
version 2

Whole song

956 views 1 this week
no commentswrite comment
1 2 3 4 5
x 3
add to favorites
×
Save as Personal and add changes to this tab that will be seen only by you. Learn more ›
×
You can save this tab as Personal to edit and correct it or add notes. All changes will be seen only by you. Learn more »
launch autoscroll
font size
0
reset
guitar tuner
edit
Autoscroll
slow
fast
+/-
esc
set tempo
stop
Intro 0:06
G|------------------------------------------------------------------|
D|o-----------------------------------------------------------------|
A|o---------------------------------1---1-1-1-1-1-1-1-1-1-1-1-1-1-1-|
D|--0---0-0-0-0-0-0-0-0-0-0-0-0-0-0---------------------------------|
    1 + 2 + 3 + 4 + 1 + 2 + 3 + 4 + 1 + 2 + 3 + 4 + 1 + 2 + 3 + 4 +

G|------------------------------------------------------------------|
D|-----------------------------------------------------------------o|
A|-0---0-0-0-0-0-0-0-0-0-0-0-0-0-----------------------------------o|
D|-------------------------------5-3---3-3-3-3-3-3-3-3-3-3-3-5------|
   1 + 2 + 3 + 4 + 1 + 2 + 3 + 4 + 1 + 2 + 3 + 4 + 1 + 2 + 3 + 4 +

Verse 0:33
G|------------------------------------------------------------------|
D|o-----------------------------------------------------------------|
A|o---------------------------------1---1-1-1-1-1-1-1-1-1-1-1-1-1-3-|
D|--0---0-0-0-0-0-0-0-0-0-0-0-0-0-0---------------------------------|
    1 + 2 + 3 + 4 + 1 + 2 + 3 + 4 + 1 + 2 + 3 + 4 + 1 + 2 + 3 + 4 +

G|------------------------------------------------------------------|
D|-----------------------------------------------------------------o|
A|-0---0-0-0-0-0-0-0-0-0-0-0-0-0-----------------0---0-0-0-0-0-0-0-o|
D|-------------------------------5-3---3-3-3-3-3--------------------|
   1 + 2 + 3 + 4 + 1 + 2 + 3 + 4 + 1 + 2 + 3 + 4 + 1 + 2 + 3 + 4 +

Chorus 1:00
G|-------------------------------------------------------------------|
D|o-----------------------------------------------------------------o|
A|o-5---5---5-5-5-------------------3---3---3-3-3-1---0-1-0-1-3-3-3-o|
D|----------------3---33333333333333---------------------------------|
    1 + 2 + 3 + 4 + 1 + 2 + 3 + 4 + 1 + 2 + 3 + 4 + 1 + 2 + 3 + 4 +

G|---------------------------------5-------5-7-5-------------------|
D|-------------2-3---------0-2-3-5---------------8-----8-7-8-7-----|
A|-5-------3-5-------------------------------------------------8-7-|
D|-----------------------------------------------------------------|
   1 + 2 + 3 + 4 + 1 + 2 + 3 + 4 + 1 + 2 + 3 + 4 + 1 + 2 + 3 + 4 +

G|-----------------------2-----------------------------------------|
D|-------3-------3---------3---------------------------------------|
A|-5-------5---------0-3-----------3---3---3-3-3-1---1-1-1-1-1-1-1-|
D|---3-5-----------------------------------------------------------|
   1 + 2 + 3 + 4 + 1 + 2 + 3 + 4 + 1 + 2 + 3 + 4 + 1 + 2 + 3 + 4 +


Interlude 1:27
G|-------------------------------------------------7-5---5---------|
D|-----------------------------------------------------7---7-5-----|
A|-------------------------------------------------------------8-7-|
D|-0---0-0-0-0-0-0-0-0-0-0-0-0-0-0-0---0-0-0-0-0-0-----------------|
   1 + 2 + 3 + 4 + 1 + 2 + 3 + 4 + 1 + 2 + 3 + 4 + 1 + 2 + 3 + 4 +

Verse 1:34
G|------------------------------------------------------------------|
D|o-----------------------------------------------------------------|
A|o---------------------------------1---1-1-1-1-1-1-1-1-1-1-1-1-1-3-|
D|--0---0-0-0-0-0-0-0-0-0-0-0-0-0-0---------------------------------|
    1 + 2 + 3 + 4 + 1 + 2 + 3 + 4 + 1 + 2 + 3 + 4 + 1 + 2 + 3 + 4 +

G|------------------------------------------------------------------|
D|-----------------------------------------------------------------o|
A|-0---0-0-0-0-0-0-0-0-0-0-0-0-0-----------------0---0-0-0-0-0-0-0-o|
D|-------------------------------5-3---3-3-3-3-3--------------------|
   1 + 2 + 3 + 4 + 1 + 2 + 3 + 4 + 1 + 2 + 3 + 4 + 1 + 2 + 3 + 4 +

Chorus 2:01
G|-------------------------------------------------------------------|
D|o-----------------------------------------------------------------o|
A|o-5---5---5-5-5-------------------3---3---3-3-3-1---0-1-0-1-3-3-3-o|
D|----------------3---33333333333333---------------------------------|
    1 + 2 + 3 + 4 + 1 + 2 + 3 + 4 + 1 + 2 + 3 + 4 + 1 + 2 + 3 + 4 +

G|---------------------------------5-------5-7-5-------------------|
D|-------------2-3---------0-2-3-5---------------8-----8-7-8-7-----|
A|-5-------3-5-------------------------------------------------8-7-|
D|-----------------------------------------------------------------|
   1 + 2 + 3 + 4 + 1 + 2 + 3 + 4 + 1 + 2 + 3 + 4 + 1 + 2 + 3 + 4 +

G|-----------------------2-----------------------------------------|
D|-------3-------3---------3---------------------------------------|
A|-5-------5---------0-3-----------3---3---3-3-3-1---1-1-1-1-1-1-1-|
D|---3-5-----------------------------------------------------------|
   1 + 2 + 3 + 4 + 1 + 2 + 3 + 4 + 1 + 2 + 3 + 4 + 1 + 2 + 3 + 4 +

Bridge 2:28
G|-----------------------------------------------------------------|
D|-----------------------------------------------------------------|
A|---------------------------------3-------------------------------|
D|-0---------------------------------------------------------------|
   1 + 2 + 3 + 4 + 1 + 2 + 3 + 4 + 1 + 2 + 3 + 4 + 1 + 2 + 3 + 4 +

G|-----------------------------------------------------------------|
D|-----------------------------------------------------------------|
A|-1-------------------------------0-------------------------------|
D|-----------------------------------------------------------------|
   1 + 2 + 3 + 4 + 1 + 2 + 3 + 4 + 1 + 2 + 3 + 4 + 1 + 2 + 3 + 4 +

G|-----------------------------------------|
D|-----------------------------------------|
A|-0-0-0-0-0-0-0-0/12-12-12-12-12-12-12-12-|
D|-----------------------------------------|
   1 + 2 + 3 + 4 + 1  +  2  +  3  +  4  +  

Solo 2:45
G|-------------------------------------------------------------------|
D|o-----------------------------------------------------------------o|
A|o-----------------------------------------------------------------o|x5
D|--0-0-0-0-0-0-0-0-0-0-0-0-0-0-0-0-0-0-0-0-0-0-0-0-0-0-0-0-0-0-0-0--|
    1 + 2 + 3 + 4 + 1 + 2 + 3 + 4 + 1 + 2 + 3 + 4 + 1 + 2 + 3 + 4 +

GuitarSolo 3:18
G|-------------------------------------------------------------------|
D|o-----------------------------------------------------------------o|
A|o-----------------------------------------------------------------o|x4
D|--000-----------------------0--0--000------------------------------|
    1 + 2 + 3 + 4 + 1 + 2 + 3 + 4 + 1 + 2 + 3 + 4 + 1 + 2 + 3 + 4 +

G|-----------------------------------------------------------------|
D|-----------------------------------------------------------------|
A|-5-4-3-2-5-4-3-2-5-4-3-2-5-4-3-2---------------------------------|
D|---------------------------------8-7-6-5-8-7-6-5-8-7-6-5-8-7-6-5-|
   1 + 2 + 3 + 4 + 1 + 2 + 3 + 4 + 1 + 2 + 3 + 4 + 1 + 2 + 3 + 4 +

G|-------------------------------------------------7-5---5---------|
D|-----------------------------------------------------7---7-5-----|
A|-------------------------------------------------------------8-7-|
D|-6-5-4-3-6-5-4-3-6-5-4-3-6-5-4-3-0-------------------------------|
   1 + 2 + 3 + 4 + 1 + 2 + 3 + 4 + 1 + 2 + 3 + 4 + 1 + 2 + 3 + 4 +

Chorus 3:59
G|-------------------------------------------------------------------|
D|o-----------------------------------------------------------------o|
A|o-5---5---5-5-5-------------------3---3---3-3-3-1---0-1-0-1-3-3-3-o|
D|----------------3---33333333333333---------------------------------|
    1 + 2 + 3 + 4 + 1 + 2 + 3 + 4 + 1 + 2 + 3 + 4 + 1 + 2 + 3 + 4 +

G|---------------------------------5-------5-7-5-------------------|
D|-------------2-3---------0-2-3-5---------------8-----8-7-8-7-----|
A|-5-------3-5-------------------------------------------------8-7-|
D|-----------------------------------------------------------------|
   1 + 2 + 3 + 4 + 1 + 2 + 3 + 4 + 1 + 2 + 3 + 4 + 1 + 2 + 3 + 4 +

G|-----------------------2-----------------------------------------|
D|-------3-------3---------3---------------------------------------|
A|-5-------5---------0-3-----------3---3---3-3-3-1---1-1-1-1-1-1-1-|
D|---3-5-----------------------------------------------------------|
   1 + 2 + 3 + 4 + 1 + 2 + 3 + 4 + 1 + 2 + 3 + 4 + 1 + 2 + 3 + 4 +

0utro 4:26
G|-----------------------------------------------------------------|
D|-----------------------------------------------------------------|
A|-5---5---5-5-7-5---5-5/8---7-5-5-3---3---3-3-5-3---3-3-5---3-----|
D|-------------------------------------------------------------5-3-|
   1 + 2 + 3 + 4 + 1 + 2 + 3 + 4 + 1 + 2 + 3 + 4 + 1 + 2 + 3 + 4 +

G|-----------------------------------------------------------------|
D|-----------------------------------------------------------------|
A|-1---1---1-0-1/3---1--/5---3-1-0-0---------0-0-1---0-------------|
D|-------------------------------------------------------5---3---2-|
   1 + 2 + 3 + 4 + 1 + 2 + 3 + 4 + 1 + 2 + 3 + 4 + 1 + 2 + 3 + 4 +

4:40
G|-----------------------------------------------------------------|
D|-----------------------------------------------------------------|
A|-5---------5-7-5------/8---8-7-5-3---------3-5-3-------5---3-----|
D|-------------------------------------------------------------5-3-|
   1 + 2 + 3 + 4 + 1 + 2 + 3 + 4 + 1 + 2 + 3 + 4 + 1 + 2 + 3 + 4 +

G|-----------------------------------------------------------------|
D|-----------------------------------------------------------------|
A|-1---1---1-0-1/3---1--/5---3-1-0-0-------0-0-1-0-----------------|
D|---------------------------------------------------5---3---2---2-|
   1 + 2 + 3 + 4 + 1 + 2 + 3 + 4 + 1 + 2 + 3 + 4 + 1 + 2 + 3 + 4 +

4:53
G|-----------------------------------------------------------------|
D|-----------------------------------------------------------------|
A|-5-------5-5-7-5---5-5/8---7-5-5-3-------3-3-5-3---3-3-5---3-----|
D|-------------------------------------------------------------5-3-|
   1 + 2 + 3 + 4 + 1 + 2 + 3 + 4 + 1 + 2 + 3 + 4 + 1 + 2 + 3 + 4 +

G|-----------------------------------------------------------------|
D|-------------------------------------------------------5---3-----|
A|-1---1---1-0-1/3---1--/5---3-1-0-0-------0-0-0-1---0---------3-1-|
D|-----------------------------------------------------------------|
   1 + 2 + 3 + 4 + 1 + 2 + 3 + 4 + 1 + 2 + 3 + 4 + 1 + 2 + 3 + 4 +

5:07
G|-----------------------------------------------------------------|
D|-----------------------------------------------------------------|
A|-5---5---5-5-7-5------/8---7-5-5-3-------3-3-5-3-------5---3-----|
D|-------------------------------------------------------------5-3-|
   1 + 2 + 3 + 4 + 1 + 2 + 3 + 4 + 1 + 2 + 3 + 4 + 1 + 2 + 3 + 4 +

G|-----------------------------------------------------------------|
D|-------------------------------------------778-7---5-------------|
A|-1---1---1-0-1/3---1--/5---3-1-0-0---------------------8---7-----|
D|-----------------------------------------------------------------|
   1 + 2 + 3 + 4 + 1 + 2 + 3 + 4 + 1 + 2 + 3 + 4 + 1 + 2 + 3 + 4 +

Fade Out
G|-----------------------------------------------------------------|
D|-----------------------------------------------------------------|
A|-5-------5-5-7-5---5-5/8---7-5-5-3-------3-3-5-3---3-3-5---3-----|
D|-------------------------------------------------------------5-3-|
   1 + 2 + 3 + 4 + 1 + 2 + 3 + 4 + 1 + 2 + 3 + 4 + 1 + 2 + 3 + 4 +

G|-----------------------------------------------------------------|
D|-------------------------------------------------------5---3-----|
A|-1---1---1-0-1/3---1--/5---3-1-0-0-------0-0-0-1---0---------3-3-|
D|-----------------------------------------------------------------|
   1 + 2 + 3 + 4 + 1 + 2 + 3 + 4 + 1 + 2 + 3 + 4 + 1 + 2 + 3 + 4 +

G|-----------------------------------------------------------------|
D|-----------------------------------------------------------------|
A|-5---5---5-5-7-5------/8---7-5-5-3-------3-3-5-3-------5---3-----|
D|-------------------------------------------------------------5-3-|
   1 + 2 + 3 + 4 + 1 + 2 + 3 + 4 + 1 + 2 + 3 + 4 + 1 + 2 + 3 + 4 +

Tabbed by Dave Vucko

            
            
Suggest correction
Creating personal tab
Creating personal tab
You can edit any tab online and save it as your Personal.

You can edit, replace or remove any tab part or add personal notes – all changes will be seen only by you.

Personal tabs can be accessed anytime from any device, even offline.
Learn more »
Give kudos to tab author, rate the tab!
1 2 3 4 5
comments
print report bad tab
guest
You may want to rate the tab now too:
select rating
Wanna post a correction for this tab? Suggest correction