Oops, an error
Loading. Please wait.

Dancing Dead Tab

version 2
version 2

Whole song

5,784 views 1 this week
no commentswrite comment
1 2 3 4 5
please rate
add to favorites
launch autoscroll
font size
0
reset
how to read this tab
guitar tuner
Autoscroll
slow
fast
+/-
esc
set tempo
stop
Help us to improve Ultimate-Guitar.com Take our survey!
×
Tuning
D A D G B E
Alright, I haven't yet cracked the solo yet, but the rest of the song is here.  
Please rate and you can get ahold of me @
a7x4ever2010@hotmail.com for suggestions and constructive criticism.

INTRO: Dist.

e|---------------------------------------------------------------------|
B|---------------------------------------------------------------------|
G|-------------------3~333333333333332~222222222-----------------------|   x4
D|-------------------3~333333333333332~222222222-----------------------|
A|0~--0000000005554321~111111111111110~000000000000---3~33333-333-333--|
D|0~--000000000------------------------------------6543~33333-333-333/5|

VERSE:
                                                         ^^^^^^^^^^^
e|------------------------------------------------------------------|
B|------------------------------------------------------------------|
G|------------------3~x---------------------------------------------|
D|------------------3~x---------------------------------------------|
A|0~----------5554321~x-------------------------------3~------------|
D|0~--------------------------------------------------3~------------|

e|---------------------------------------------------------------------|
B|---------------------------------------------------------------------|
G|-------------------3~333333333333332~222222222-----------------------|
D|-------------------3~333333333333332~222222222-----------------------|
A|0~--0000000005554321~111111111111110~000000000000---3~33333-333-333--|
D|0~--000000000------------------------------------6543~33333-333-333/5|

CHORUS:
pt.1
e|17---13---20----17---18----15---------------|
B|---15--15~----18--18~----17--17~h18p17p15\10|
G|-14---------17---------15-------------------|
D|--------------------------------------------|
A|--------------------------------------------|
D|--------------------------------------------|

pt.2
e|-------------------------------20 22~23 22 20---| 
B|10 11 13 15~-15 17 18 20~-20 22--------------20~|
G|------------------------------------------------|   Repeat pt.1, than 
D|------------------------------------------------|   go to verse, than to
A|------------------------------------------------|   chorus.
D|------------------------------------------------|

Bridge:Clean
     Dm   C   Bb  A
e|----5---x---x---x-|
B|----6---5---3---2-|
G|----7---5---3---2-|  Repeat x2
D|----7---5---3---2-|
A|----5---3---1---0-|
D|------------------|

Solo: I will be eventually putting that into this 

Interlude:

e|--------------------------------------------------|
B|--------------------------------------------------|
G|--------------------------------------------------|   Go to chorus
D|--------------------------------------------------|
A|7654765476547654321032103210321054325432543254327~|
D|7654765476547654321032103210321054325432543254327~|

OUTRO:

e|1713------131713------17--|
B|----15--15------14--15--15|
G|------14----------15------|  Now, keep this progression, If you don't know
D|--------------------------|  it, this one goes, Dm argeggio, C arpeggio, 
A|--------------------------|  Bb arpeggio, Am, if you listen to the song,
D|--------------------------|  you should easily catch on to the Am bit.


That's my first song uploaded, so take it easy on me, I will have that solo in 
once I figure it out.  Hope you like the tab.
Suggest correction
Give kudos to tab author, rate the tab!
1 2 3 4 5
comments
print report bad tab
guest
You may want to rate the tab now too:
select rating
Please do not post tabs as comments. Select "correction" instead!