Oops, an error
Loading. Please wait.

Dancing Dead tab

version 3
version 3

Whole song

709 views 6 this week
no commentswrite comment
1 2 3 4 5
2 more votes to show rating
add to favorites
×
Save as Personal and add changes to this tab that will be seen only by you. Learn more ›
×
You can save this tab as Personal to edit and correct it or add notes. All changes will be seen only by you. Learn more »
launch autoscroll
font size
0
reset
how to read this tab
guitar tuner
edit
Autoscroll
slow
fast
+/-
esc
set tempo
stop
-------------------------------------------------------------------------------
                             Dancing Dead - Avenged Sevenfold
-------------------------------------------------------------------------------
Tabbed by: guitarhodgie
E-mail:

All the parts for lead guitar 
Learned by ear so it may be a bit off, especially the solo

Tuning: Drop D

 intro:
e|---------------------------------------------------------------------------|
B|---------------------------------------------------------------------------|
G|---------------------7-7-7-6-5-4-3-----------------------------------------|
D|-0----------------------------------3-3-3-3-3-3-3-3-3-3-3-3-3-3------------|
A|-0-------------------5-5-5-4-3-2-1--1-1-1-1-1-1-1-1-1-1-1-1-1-1------------|
D|-0-0-0-0-0-0-0-0-0-0-------------------------------------------------------|

e|---------------------------------------------------------------------------|
B|---------------------------------------------------------------------------|
G|---------------------------------------------------------------------------|
D|-7-------------------7-7-7-6-5-4-3-----------3-----------------------------|
A|-----------------------------------3-3-3-3-3-3-3-3-3-----------------------|
D|-7-7-7-7-7-7-7-7-7-7-7-7-7-6-5-4-3-3-3-3-3-3-3-3-3-3-3-5-------------------|
 
 verse:
e|---------------------------------------------------------------------------|
B|---------------------------------------------------------------------------|
G|----------------7-7-7-6-5-4-3-------------x\-------------------------------|
D|-0----------------------------------------x\-------------------------------|
A|-0--------------5-5-5-4-3-2-1----------------------------------------------|
D|-0------------------------------------3------------------------------------|

e|---------------------------------------------------------------------------|
B|---------------------------------------------------------------------------|
G|---------------------7-7-7-6-5-4-3-----------------------------------------|
D|-0----------------------------------3-3-3-3-3-3-3-3-3-3-3-3-3-3------------|
A|-0-------------------5-5-5-4-3-2-1--1-1-1-1-1-1-1-1-1-1-1-1-1-1------------|
D|-0-0-0-0-0-0-0-0-0-0-------------------------------------------------------|

e|---------------------------------------------------------------------------|
B|---------------------------------------------------------------------------|
G|---------------------------------------------------------------------------|
D|-7-------------------7-7-7-6-5-4-3-----------7---------7-7-7---------------|
A|-----------------------------------3-3-3-3-3-7-7-7-7-7-7-7-7---------------|
D|-7-7-7-7-7-7-7-7-7-7-7-7-7-6-5-4-3-3-3-3-3-3-7-7-7-7-7-7-7-7---------------|

 chorus: 
e|-10--------------13------17----12-------------12b13b12-10------------------|
B|---------18-15-------------18----------20-17-------------13-10-------------|
G|---10/14-----------14/17--------12/17-------------------------12-----------|
D|----------------------------------------------------------------12---------|
A|------------------------------------------------------------------12-------|
D|---------------------------------------------------------------------------|
 
e|-10--------------13------17----12-------------12b13b12-10------------------|
B|---------18-15-------------18----------20-17-------------13-10-------------|
G|---10/14-----------14/17--------12/17-------------------------12-----------|
D|----------------------------------------------------------------12---------|
A|------------------------------------------------------------------12-------|
D|---------------------------------------------------------------------------| 

e|---------------------------------------------------------------------------|
B|-----9-9b10--10-11-12-12b13--13-15-16-16b17--17b18b17-15-------------------|
G|---10----------------------------------------------------17b19-------------|
D|-12------------------------------------------------------------------------|
A|---------------------------------------------------------------------------|
E|---------------------------------------------------------------------------|

e|-10--------------13------17----12-------------12b13b12-10------------------|
B|---------18-15-------------18----------20-17-------------13-10-------------|
G|---10/14-----------14/17--------12/17-------------------------12-----------|
D|----------------------------------------------------------------12---------|
A|------------------------------------------------------------------12-------|
D|---------------------------------------------------------------------------| 

 interlude:
e|---------------------------------------------------------------------------|
B|-------------------------------------15-15-15-15---------------------------|
G|-------------------------14-14-14-14-------------14-14-14-14---------------|
D|-------------15-15-15-15-------------------------------------15-15-15-15---|
A|-17-17-17-17---------------------------------------------------------------|
D|---------------------------------------------------------------------------|

e|---------------------------------------------------------------------------|
B|-------------------------------------------------------------13-13-13-13---|
G|-------------------------------------------------12-12-12-12---------------|
D|-------------15-15-15-15-------------14-14-14-14---------------------------|
A|-17-17-17-17-------------15-15-15-15---------------------------------------|
D|---------------------------------------------------------------------------|


e|---------------------------------------------------------------------------|
B|---------------------------------------------------------------------------|
G|-12-12-12-12---------------------------------------------------------------|
D|-------------14-14-14-14-------------14-14-14-14-------------12-12-12-12---|
A|-------------------------15-15-15-15-------------13-13-13-13---------------|
D|---------------------------------------------------------------------------|


e|---------------------------------------------------------------------------|
B|--------------11-11-11-11--------------------------------------------------|
G|-10-10-10-10--------------10-10-10-10--------------------------------------|
D|--------------------------------------12-12-12-12-------------12-12-12-12--|
A|--------------------------------------------------13-13-13-13--------------|
D|---------------------------------------------------------------------------|


e|-----------------------------------------------------------------------------|
B|---------------------------------10-10-10-10---------------------------------|
G|-------------------------9-9-9-9-------------9-9-9-9-------------------------|
D|-------------11-11-11-11-----------------------------11-11-11-11-------------|
A|-12-12-12-12-----------------------------------------------------12-12-12-12-|
D|-----------------------------------------------------------------------------|

e|-----------------------------------------------------------------------------|
B|---------------------------------------------10-10-10-10---------------------|
G|-------------------------------------9-9-9-9-------------9-9-9-9-------------|
D|-11-11-11-11-------------11-11-11-11-----------------------------11-11-11-11-|
A|-------------12-12-12-12-----------------------------------------------------|
D|-----------------------------------------------------------------------------|

e|---------------------------------------------------------------------------|
B|---------------------------------------------------------------------------|
G|---------------------------------------------------------------------------|
D|-------------11-11-11-11---------------------------------------------------|
A|-12-12-12-12---------------------------------------------------------------|
D|---------------------------------------------------------------------------|

pre-solo:
e|---------------------------------------------------------------------------|
B|---------------------------------------------------------------------------|
G|---------------------------------------------------------------------------|
D|---------------------------------------------------------------------------|
A|---------------------------------------------------------------------------|
D|-0-0-0-----0-0--0-0-0------------------------------------------------------|

solo 1:
e|------------------------------------------------------------------------------------|
B|------------------------------------------------------------------------------------|
G|-----------------6-7-6-7-9-10-9-7-6-6-7-9-7-6-7-9-10-9-7-9-10-12-10-9-9-10-12-12/14-|
D|---------6-7-6-7--------------------------------------------------------------------|
A|-5-8-5-8----------------------------------------------------------------------------|
D|------------------------------------------------------------------------------------|


e|-10h13p10----10---------------------------------------------------------------------|
B|----------13---13p10-13b15b13-10--10------------------------------------------------|
G|--------------------------------13--13--10h13p10--10--------------------------------|
D|------------------------------------------------12--12-10-12-10---------------------|
A|---------------------------------------------------------------12-10----------------|
D|--------------------------------------------------------------------11--------------|

e|------------------------------------------------------------------------------------|
B|------------------------------------------------------------------------------------|
G|-----------------6-7-6-7-9-10-9-7-6-6-7-9-7-6-7-9-10-9-7-9-10-12-10-9-9-10-12-12/17-|
D|---------6-7-6-7--------------------------------------------------------------------|
A|-5-8-5-8----------------------------------------------------------------------------|
D|------------------------------------------------------------------------------------|



e|-15-15-15-15-15-15-15-15-15b17b15-13---13-14-15b17b15-14-13-------------------------|
B|-------------------------------------15---------------------13----------------------|
G|--------------------------------------------------------------14-13-----------------|
D|------------------------------------------------------------------------------------|
A|------------------------------------------------------------------------------------|
D|------------------------------------------------------------------------------------|

e|-8-9-8-6-5-6-x8--12-13-12-10-9-10-12-17-12-10-9-10-12-18-12-10-9-10-12-17-12-10-9---|
B|------------------------------------------------------------------------------------|
G|------------------------------------------------------------------------------------|
D|------------------------------------------------------------------------------------|
A|------------------------------------------------------------------------------------|
D|------------------------------------------------------------------------------------|

e|-10-12-13-12-10-9-10-12-17-12-10-9-10-12/17--------------------------------|
B|---------------------------------------------------------------------------|
G|---------------------------------------------------------------------------|
D|---------------------------------------------------------------------------|
A|---------------------------------------------------------------------------|
D|---------------------------------------------------------------------------|

e|-13-17-18-17-13-17-18-17-13-17-18-17-13-17-18-13-17-18-17-13-17-13---------|
B|------------------------------------------------------------------15-14-15-|
G|---------------------------------------------------------------------------|
D|---------------------------------------------------------------------------|
A|---------------------------------------------------------------------------|
D|---------------------------------------------------------------------------|

e|-----------------------------------------------13-12-10----------15b17b15-13---13-15b17-|
B|-------------------------------13-11-10-----------------13-11-10-------------15---------|
G|-10-9-7--------12-10-9------------------12-10-9-----------------------------------------|
D|--------10-8-7---------12-10-8----------------------------------------------------------|
A|----------------------------------------------------------------------------------------|
D|----------------------------------------------------------------------------------------|

post-solo
e|------------------------------------------------------------------------------|
B|------------------------------------------------------------------------------|
G|------------------------------------------------------------------------------|
D|-12-11-10-9-12-11-10-9-12-11-10-9-12-11-10--9-8-7-6-5-8-7-6-5-8-7-6-5-8-7-6-5-|
A|-12-11-10-9-12-11-10-9-12-11-10-9-12-11-10--9-8-7-6-5-8-7-6-5-8-7-6-5-8-7-6-5-|
D|-12-11-10-9-12-11-10-9-12-11-10-9-12-11-10--9-8-7-6-5-8-7-6-5-8-7-6-5-8-7-6-5-|

e|---------------------------------------------------------------------------|
B|---------------------------------------------------------------------------|
G|---------------------------------------------------------------------------|
D|-7-6-5-3-7-6-5-3-7-6-5-3-7-6-5---0-----------------------------------------|
A|-7-6-5-3-7-6-5-3-7-6-5-3-7-6-5---0-----------------------------------------|
D|-7-6-5-3-7-6-5-3-7-6-5-3-7-6-5---0-----------------------------------------|

solo 2:
e|---------------------------------------------------------------------------|
B|---------------------------------------------------------------------------|
G|-7-9-10/14-14\9-9b10b9-9b10b9-7-7-9-10-9-7-7b9-6-7-6-----------------------|
D|---------------------------------------------------------------------------|
A|---------------------------------------------------------------------------|
D|---------------------------------------------------------------------------|

e|-------------------------/15-12-12-13-15-12b13-12--12----------------------------------------|
B|----------------/17h13-13------------------------15--15-15b17-14-14-15-14--------------------|
G|-7-9-10/17-17-14---------------------------------------------------------14-13-14-15-13h14-14|
D|---------------------------------------------------------------------------------------------|
A|---------------------------------------------------------------------------------------------|
D|---------------------------------------------------------------------------------------------|

outro:

e|--17-13----------13-17-13----------17---15-12-------12-15-12----------15----|
B|--------15----15----------15----15---15-------13--13---------13----13----13-|
G|-----------14----------------14-----------------12--------------12----------|
D|----------------------------------------------------------------------------|
A|----------------------------------------------------------------------------|
D|----------------------------------------------------------------------------|

e|-13-10----------10-13-10----------13----12-9--------------------------------|
B|-------11----11----------11----11----11------10-----------------------------|
G|----------10----------------10------------------9-10-12/15-14---------------|
D|----------------------------------------------------------------------------|
A|----------------------------------------------------------------------------|
D|----------------------------------------------------------------------------|



************************************

| /   slide up
| \   slide down
| h   hammer-on
| p   pull-off
| ~   vibrato
| +   harmonic
| x   Mute note
| b   Bend
| pb  Pre-bend
| br  Bend release
| pbr Pre-bend release
| brb Bend release bend
| x\ pick slide 

************************************

            
            
Suggest correction
Creating personal tab
Creating personal tab
You can edit any tab online and save it as your Personal.

You can edit, replace or remove any tab part or add personal notes – all changes will be seen only by you.

Personal tabs can be accessed anytime from any device, even offline.
Learn more »
Give kudos to tab author, rate the tab!
1 2 3 4 5
comments
print report bad tab
guest
You may want to rate the tab now too:
select rating
Wanna post a correction for this tab? Suggest correction