Oops, an error
Loading. Please wait.

Danger Line Tab

version 3
version 3
7,987 views 3 this week
6 commentsread comments
1 2 3 4 5
x 4
add to favorites
launch autoscroll
font size
0
reset
how to read this tab
guitar tuner
Autoscroll
slow
fast
+/-
esc
set tempo
stop
Help us to improve Ultimate-Guitar.com Take our survey!
×
Author
Difficulty
Tuning
intermediate
D A D G B E
-------------------------------------------------------------------------------
                             Danger Line Solo- Avenged Sevenfold
-------------------------------------------------------------------------------
Tabbed by:Caine
Email:

Tuning:Drop D

e|----------------------13-17-17br-15~-15br-15-13--13h15-13h15-13------------|
B|-13b-15b-15br(1 1\2)-13-------------------------15-------------------------|
G|---------------------------------------------------------------------------|
D|---------------------------------------------------------------------------|
A|---------------------------------------------------------------------------|
E|---------------------------------------------------------------------------|

e|-17-18~----13\18-17~-----8\13-13\17~--17-18p17p16-17~---------------------------|
B|--------15-----------13-------------------------------10\17-18-20-18-17h18p17---|
G|--------------------------------------------------------------------------------|
D|--------------------------------------------------------------------------------|
A|--------------------------------------------------------------------------------|
E|--------------------------------------------------------------------------------|

e|----------------------------17-17br-15--15-17-18--18--18\20--17br----------|
B|-------------------------18----------------------------------------15br----|
G|19~-19b-19br(1 1\2)-17~----------------------------------------------------|
D|---------------------------------------------------------------------------|
A|---------------------------------------------------------------------------|
E|---------------------------------------------------------------------------|

e|--------18-17-15-------------17-15-13\17~--17-18-20-21~---17-18-20-20b-----|
B|------15---------18~-------13---------------------------17-----------------|
G|-12\15----------------10\14------------------------------------------------|
D|---------------------------------------------------------------------------|
A|---------------------------------------------------------------------------|
E|---------------------------------------------------------------------------|



************************************

| /   slide up
| \   slide down
| h   hammer-on
| p   pull-off
| ~   vibrato
| +   harmonic
| x   Mute note
| b   Bend
| pb  Pre-bend
| br  Bend release
| pbr Pre-bend release
| brb Bend release bend

************************************
Suggest correction
comments
print report bad tab
6 comments total. Showing first comments.
0 reply
icecoldsnake 10 Aug 16, 2010 03:06 AM

Please re-edit to make it readable and resubmit. Only one star

0 reply
Caine7x 16 Aug 24, 2010 03:53 PM

whats not readable?

0 reply
diegosilva 31 Nov 10, 2010 07:52 PM

its a little off :O

guest
You may want to rate the tab now too:
select rating
Wanna post a correction for this tab? Suggest correction