Oops, an error
Loading. Please wait.

Danger Line Tab

version 5
version 5
471 views 1 this week
1 commentread comment
1 2 3 4 5
please rate
add to favorites
launch autoscroll
font size
0
reset
how to read this tab
guitar tuner
Autoscroll
slow
fast
+/-
esc
set tempo
stop
Help us to improve Ultimate-Guitar.com Take our survey!
×
Author
Difficulty
Tuning
intermediate
D G C F A D
Tab: Danger Line Solo
Artist: Avenged Sevenfold

Guitar 1
E|-----------------------------------13--17-b18r17~--15~------|
B|-13b15-----15/17---/18--\15-\13~----------------------------|
G|------------------------------------------------------------|
D|------------------------------------------------------------|
A|------------------------------------------------------------|
D|------------------------------------------------------------|


E|-15b17-----15p13----13h15--13h15--13~--------/17--18~------------|
B|-----------------15--------------------------------------15~-----|
G|-----------------------------------------------------------------|
D|-----------------------------------------------------------------|
A|-----------------------------------------------------------------|
D|-----------------------------------------------------------------|


E|-/18---17~-------------13--/17~-------17--h18p17p16-17~-----|
B|---------------13~------------------------------------------|
G|------------------------------------------------------------|
D|------------------------------------------------------------|
A|------------------------------------------------------------|
D|------------------------------------------------------------|


E|-12-13-15---13---12p13h12-----------------------------------|
B|--------------------------15~-----15b17r15b18---15--13~-----|
G|------------------------------------------------------------|
D|------------------------------------------------------------|
A|------------------------------------------------------------|
D|------------------------------------------------------------|


E|-13--17-b18r17---15-17-18--18-18b20---17b18r17~------|
B|-----------------------------------------------------|
G|-----------------------------------------------------|
D|-----------------------------------------------------|
A|-----------------------------------------------------|
D|-----------------------------------------------------|

Guitar 1
E|------------------13-18---17---15\-13~--------13-17---15---13-/17~------|
B|-15b17r15~-----15--------------------------13---------------------------|
G|------------------------------------------------------------------------|
D|------------------------------------------------------------------------|
A|------------------------------------------------------------------------|
D|------------------------------------------------------------------------|
                                                                          |
Guitar 2                                                                  |
E|------------------------------------------------------------------------|
B|------------------15-18---17---15-------------15-18---17---15--14~------|
G|------/15~-----15------------------14~-----15---------------------------|
D|------------------------------------------------------------------------|
A|------------------------------------------------------------------------|
D|------------------------------------------------------------------------|



Guitar 1
E|-17-18-20-20b22~-----------------17-18-20-21b23~----------------|
B|------------------------------18--------------------------------|
G|----------------------------------------------------------------|
D|----------------------------------------------------------------|
A|----------------------------------------------------------------|
D|----------------------------------------------------------------|
                                                                  |
Guitar 2                                                          |
E|----12-13/17~---------------------------------------------------|
B|-14------------------------------14-15-17-17b18~----------------|
G|------------------------------14--------------------------------|
D|----------------------------------------------------------------|
A|----------------------------------------------------------------|
D|----------------------------------------------------------------|
Suggest correction
Give kudos to tab author, rate the tab!
1 2 3 4 5
comments
print report bad tab
1 comment total.
0 reply
lucifer1123 280 wrote on January 18 2013, 10:00 am

Really? 1 [1 star] vote with no comment. Why?

guest
You may want to rate the tab now too:
select rating
Wanna post a correction for this tab? Suggest correction