Oops, an error
Loading. Please wait.

Danger Line bass

version 2
version 2

Whole song

1,353 views 3 this week
no commentswrite comment
1 2 3 4 5
x 5
add to favorites
×
Save as Personal and add changes to this tab that will be seen only by you. Learn more ›
×
You can save this tab as Personal to edit and correct it or add notes. All changes will be seen only by you. Learn more »
launch autoscroll
font size
0
reset
guitar tuner
backing track
0:00
0:00
edit
Autoscroll
slow
fast
+/-
esc
set tempo
stop
G|-----------------------------------------------------------------|
D|-----------------------------------------------------------------|
A|-----------------------------------------------------------------|
D|-0-------0--0--0-0-------0--0--0-0-------0--0--0-0-------0-------|
   1 e + a Triplet 3 e + a Triplet 1 e + a Triplet 3 e + a 4 e + a

G|-------------------------------------------------------------------|
D|o-----------------------------------------------------------------o|x3
A|o-----------------------------------------------------------------o|
D|--0-------0--0--0-0-------0--0--0-0-------0-------0-------0--0--0--|
    1 e + a Triplet 3 e + a Triplet 1 e + a 2 e + a 3 e + a Triplet

0:10 Enter Guitar
G|-----------------------------------------------------------------|
D|-----------------------------------------------------------------|
A|-----------------------------------------------------------------|
D|-0-------0--0--0-0-------0--0--0-0-------0-------0-------0-------|
   1 e + a Triplet 3 e + a Triplet 1 e + a 2 e + a 3 e + a 4 e + a

G|-------------------------------------------------------------------|
D|o-----------------------------------------------------------------o|
A|o-----------------------------------------------------------------o|
D|--0-------0--0--0-0-------0--0--0-0-------0-------0-------0--0--0--|
    1 e + a Triplet 3 e + a Triplet 1 e + a 2 e + a 3 e + a Triplet

G|-----------------------------------------------------------------|
D|-----------------------------------------------------------------|
A|-----------------------------------------------------------------|
D|-0-------0--0--0-0-------0--0--0-0-------------------------------|
   1 e + a Triplet 3 e + a Triplet 1 e + a 2 e + a 3 e + a 4 e + a

G|------------------------------------------------------------------|
D|o-----------------------------------------------------------------|
A|o-----------------------------------------------------------------|
D|--0---0---0---0---0---0---0---0---2---2---2---2---2---2---2---2---|
    1 + 2 + 3 + 4 + 1 + 2 + 3 + 4 + 1 + 2 + 3 + 4 + 1 + 2 + 3 + 4 +

G|------------------------------------------------------------------|
D|-----------------------------------------------------------------o|
A|-----------------------------------------------------------------o|
D|-5---5---5---5---5---5---5---5---1---1---1---1---1---1---1---1----|
   1 + 2 + 3 + 4 + 1 + 2 + 3 + 4 + 1 + 2 + 3 + 4 + 1 + 2 + 3 + 4 +

Rest

0:45 Verse
G|-------------------------------------------------------------------|
D|o-----------------------------------------------------------------o|
A|o-----------------------------------------------------------------o|
D|--0-----------0-----------0--0--0-0-----------0-----------0--0--0--|
    1 e + a 2 e + a 3 e + a Triplet 1 e + a 2 e + a 3 e + a Triplet 

G|-------------------------------------------------------------------|
D|o-----------------------------------------------------------------o|
A|o-----------------------------------------------------------------o|
D|--5-----------5-----------5--5--5-5-----------5-----------5--5--5--|
    1 e + a 2 e + a 3 e + a Triplet 1 e + a 2 e + a 3 e + a Triplet 

G|-----------------------------------------------------------------|
D|-----------------------------------------------------------------|
A|-----------------------------------------------------------------|
D|-0---0---3---0-------0-0-0--0--0-0---0---3---0-------0-0-0--0--0-|
   1 e + a 2 e + a 3 e + a Triplet 1 e + a 2 e + a 3 e + a Triplet 

G|-----------------------------------------------------------------|
D|-----------------------------------------------------------------|
A|-----------------------------------------------------------------|
D|-0---0---3---0-------0-0-0--0--0-0---0---3---0---0---0---3---0---|
   1 e + a 2 e + a 3 e + a Triplet 1 e + a 2 e + a 3 e + a 4 e + a

G|-----------------------------------------------------------------|
D|-----------------------------------------------------------------|
A|-----------------------------------------------------------------|
D|-5---5---8---5------5-5-5--5--5-5---5---8---5--------5-5-5--5--5-|
   1 e + a 2 e + a 3 e + a Triplet 1 e + a 2 e + a 3 e + a Triplet 

G|-----------------------------------------------------------------|
D|-----------------------------------------------------------------|
A|-----------------------------------------------------------------|
D|-5---5---8---5-------5-5-5--5--5-5---5---8---5---5---5---8---5---|
   1 e + a 2 e + a 3 e + a Triplet 1 e + a 2 e + a 3 e + a 4 e + a

Rest

1:08 Chorus
G|------------------------------------------------------------------|
D|o-----------------------------------------------------------------|
A|o-----------------------------------------------------------------|
D|--0-0-0-0-0-0-0-0-0-0-0-0-0-0-0-0-5-5-5-5-5-5-5-5-5-5-5-5-5-5-5-5-|
    1 + 2 + 3 + 4 + 1 + 2 + 3 + 4 + 1 + 2 + 3 + 4 + 1 + 2 + 3 + 4 +

G|------------------------------------------------------------------|
D|-----------------------------------------------------------------o|
A|-----------------------------------------------------------------o|
D|-5-5-5-5-5-5-5-5-5-5-5-5-5-5-5-5-0-0-0-0-0-0-0-0-0-0-0-0-0-0-0-0--|
    1 + 2 + 3 + 4 + 1 + 2 + 3 + 4 + 1 + 2 + 3 + 4 + 1 + 2 + 3 + 4 +

1:29
G|------------------------------------------------------------------|
D|o-----------------------------------------------------------------|
A|o-----------------------------------------------------------------|
D|--0---0---0---0---0---0---0---0---2---2---2---2---2---2---2---2---|
    1 + 2 + 3 + 4 + 1 + 2 + 3 + 4 + 1 + 2 + 3 + 4 + 1 + 2 + 3 + 4 +

G|------------------------------------------------------------------|
D|-----------------------------------------------------------------o|
A|-----------------------------------------------------------------o|
D|-5---5---5---5---5---5---5---5---1---1---1---1---1---1---1---1----|
   1 + 2 + 3 + 4 + 1 + 2 + 3 + 4 + 1 + 2 + 3 + 4 + 1 + 2 + 3 + 4 +

Rest

1:43 Verse
G|-------------------------------------------------------------------|
D|o-----------------------------------------------------------------o|
A|o-----------------------------------------------------------------o|
D|--0-----------0-----------0--0--0-0-----------0-----------0--0--0--|
    1 e + a 2 e + a 3 e + a Triplet 1 e + a 2 e + a 3 e + a Triplet 

G|-------------------------------------------------------------------|
D|o-----------------------------------------------------------------o|
A|o-----------------------------------------------------------------o|
D|--5-----------5-----------5--5--5-5-----------5-----------5--5--5--|
    1 e + a 2 e + a 3 e + a Triplet 1 e + a 2 e + a 3 e + a Triplet 

G|-----------------------------------------------------------------|
D|-----------------------------------------------------------------|
A|-----------------------------------------------------------------|
D|-0---0---3---0-------0-0-0--0--0-0---0---3---0-------0-0-0--0--0-|
   1 e + a 2 e + a 3 e + a Triplet 1 e + a 2 e + a 3 e + a Triplet 

G|-----------------------------------------------------------------|
D|-----------------------------------------------------------------|
A|-----------------------------------------------------------------|
D|-0---0---3---0-------0-0-0--0--0-0---0---3---0---0---0---3---0---|
   1 e + a 2 e + a 3 e + a Triplet 1 e + a 2 e + a 3 e + a 4 e + a

G|-----------------------------------------------------------------|
D|-----------------------------------------------------------------|
A|-----------------------------------------------------------------|
D|-5---5---8---5------5-5-5--5--5-5---5---8---5--------5-5-5--5--5-|
   1 e + a 2 e + a 3 e + a Triplet 1 e + a 2 e + a 3 e + a Triplet 

G|-----------------------------------------------------------------|
D|-----------------------------------------------------------------|
A|-----------------------------------------------------------------|
D|-5---5---8---5-------5-5-5--5--5-5---5---8---5---5---5---8---5---|
   1 e + a 2 e + a 3 e + a Triplet 1 e + a 2 e + a 3 e + a 4 e + a

G|-----------------------------------------------------------------|
D|-----------------------------------------------------------------|
A|-----------------------------------------------------------------|
D|-----------------------------------------------------------------|
   1 e + a 2 e + a 3 e + a 4 e + a 1 e + a 2 e + a 3 e + a 4 e + a

2:07 Chorus
G|------------------------------------------------------------------|
D|o-----------------------------------------------------------------|
A|o-----------------------------------------------------------------|
D|--0-0-0-0-0-0-0-0-0-0-0-0-0-0-0-0-5-5-5-5-5-5-5-5-5-5-5-5-5-5-5-5-|
    1 + 2 + 3 + 4 + 1 + 2 + 3 + 4 + 1 + 2 + 3 + 4 + 1 + 2 + 3 + 4 +

G|------------------------------------------------------------------|
D|-----------------------------------------------------------------o|
A|-----------------------------------------------------------------o|
D|-5-5-5-5-5-5-5-5-5-5-5-5-5-5-5-5-0-0-0-0-0-0-0-0-0-0-0-0-0-0-0-0--|
    1 + 2 + 3 + 4 + 1 + 2 + 3 + 4 + 1 + 2 + 3 + 4 + 1 + 2 + 3 + 4 +

G|-----------------------------------------------------------------|
D|-----------------------------------------------------------------|
A|-1-1-1-1-1-1-1-1-1-1-1-1-1-1-1-1---------------------------------|
D|---------------------------------1-1-1-1-1-1-1-1-1-1-1-1-1-1-1-1-|
   1 + 2 + 3 + 4 + 1 + 2 + 3 + 4 + 1 + 2 + 3 + 4 + 1 + 2 + 3 + 4 +

2:34 Bridge
G|-----------------------------------------------------------------|
D|-----------------------------------------------------------------|
A|-1-1-1-1-1-1-1-1-1-1-1-1-1-1-1-1---------------------------------|
D|---------------------------------3-3-3-3-3-3-3-3-3-3-3-3-3-3-3-3-|
   1 e + a 2 e + a 3 e + a 4 e + a 1 e + a 2 e + a 3 e + a 4 e + a

G|-----------------------------------------------------------------|
D|-----------------------------------------------------------------|
A|-3-3-3-3-3-3-3-3-3-3-3-3-3-3-3-3---------------------------------|
D|---------------------------------0-0-0-0-0-0-0-0-0-0-0-0-0-0-0-0-|
   1 e + a 2 e + a 3 e + a 4 e + a 1 e + a 2 e + a 3 e + a 4 e + a

2:45
G|-----------------------------------------------------------------|
D|-----------------------------------------------------------------|
A|-1-1-1-1-1-1-1-1-1-1-1-1-1-1-1-1---------------------------------|
D|---------------------------------3-3-3-3-3-3-3-3-3-3-3-3-3-3-3-3-|
   1 e + a 2 e + a 3 e + a 4 e + a 1 e + a 2 e + a 3 e + a 4 e + a

G|-----------------------------------------------------------------|
D|-----------------------------------------------------------------|
A|-0-0-0-0-0-0-0-0-0-0-0-0-0-0-0-0-3-3-3-3-3-3-3-3-6-6-6-6-6-6-6-6-|
D|-----------------------------------------------------------------|
   1 + 2 + 3 + 4 + 1 + 2 + 3 + 4 + 1 + 2 + 3 + 4 + 1 + 2 + 3 + 4 +

2:55
G|-----------------------------------------------------------------|
D|-----------------------------------------------------------------|
A|-1-------1--1--1-1-------1--1--1-1-------1--1--1-1-------1--1--1-|
D|-----------------------------------------------------------------|
   1 e + a Triplet 3 e + a Triplet 1 e + a Triplet 3 e + a Triplet

G|-----------------------------------------------------------------|
D|-----------------------------------------------------------------|
A|-----------------------------------------------------------------|
D|-3-------3--3--3-3-------3--3--3-3-------3--3--3-3-------3--3--3-|
   1 e + a Triplet 3 e + a Triplet 1 e + a Triplet 3 e + a Triplet

G|-----------------------------------------------------------------|
D|-----------------------------------------------------------------|
A|-----------------------------------------------------------------|
D|-2-------2--2--2-2-------2--2--2-2-------2--2--2-2-------2--2--2-|
   1 e + a Triplet 3 e + a Triplet 1 e + a Triplet 3 e + a Triplet

G|-----------------------------------------------------------------|
D|-----------------------------------------------------------------|
A|-5-------5--5--5-5-------5--5--5-8-----------7-----------5---3---|
D|-----------------------------------------------------------------|
   1 e + a Triplet 3 e + a Triplet 1 e + a 2 e + a 3 e + a 4 e + a 

3:06
G|-----------------------------------------------------------------|
D|-----------------------------------------------------------------|
A|-1-------1--1--1-1-------1--1--1-1-------1--1--1-1-------1--1--1-|
D|-----------------------------------------------------------------|
   1 e + a Triplet 3 e + a Triplet 1 e + a Triplet 3 e + a Triplet

G|-----------------------------------------------------------------|
D|-----------------------------------------------------------------|
A|-----------------------------------------------------------------|
D|-3-------3--3--3-3-------3--3--3-3-------3--3--3-3-------3--3--3-|
   1 e + a Triplet 3 e + a Triplet 1 e + a Triplet 3 e + a Triplet

G|-----------------------------------------------------------------|
D|-----------------------------------------------------------------|
A|-0-------0--0--0-0-------0--0--0-0-------0--0--0-0-------0--0--0-|
D|-----------------------------------------------------------------|
   1 e + a Triplet 3 e + a Triplet 1 e + a Triplet 3 e + a Triplet

G|-----------------------------------------------------------------|
D|-----------------------------------------------------------------|
A|-1-------1--1--1-1-------1--1--1-6---6---6---6---6---6---6---6---|
D|-----------------------------------------------------------------|
   1 e + a Triplet 3 e + a Triplet 1 e + a 2 e + a 3 e + a 4 e + a

Rest

3:59 Solo
G|-----------------------------------------------------------------|
D|-----------------------------------------------------------------|
A|-1---------------1---1-------0-------------------------------1---|
D|---------------------------------3---3---3-------3---3---3-------|
   1 e + a 2 e + a 3 e + a 4 e + a 1 e + a 2 e + a 3 e + a 4 e + a

G|-----------------------------------------------------------------|
D|-----------------------------------------------------------------|
A|-3---3---3-------3---3---3---7---5---5---5-------7-------8-------|
D|-----------------------------------------------------------------|
   1 e + a 2 e + a 3 e + a 4 e + a 1 e + a 2 e + a 3 e + a 4 e + a

G|-----------------------------------------------------------------|
D|-----------------------------------------------------------------|
A|-1---------------1---3---1---0-----------------------------------|
D|---------------------------------3---3---3-------3-----------5---|
   1 e + a 2 e + a 3 e + a 4 e + a 1 e + a 2 e + a 3 e + a 4 e + a

G|-----------------------------------------------------------------|
D|---------------------------------7---------------7---5-----------|
A|-0---------------------------7---------------------------8---7---|
D|-----------------------------------------------------------------|
   1 e + a 2 e + a 3 e + a 4 e + a 1 e + a 2 e + a 3 e + a 4 e + a

G|-----------------------------------------------------------------|
D|-----------------------------------------------------------------|
A|-1---------------1---1-------0-------------------------------1---|
D|---------------------------------3---3---3-------3---3---3-------|
   1 e + a 2 e + a 3 e + a 4 e + a 1 e + a 2 e + a 3 e + a 4 e + a

G|-----------------------------------------------------------------|
D|-----------------------------------------------------------------|
A|-3---3---3-------3---3---3---7---5---5-------5-------7---8---0---|
D|-----------------------------------------------------------------|
   1 e + a 2 e + a 3 e + a 4 e + a 1 e + a 2 e + a 3 e + a 4 e + a

G|-----------------------------------------------------------------|
D|-----------------------------------------------------------------|
A|-1---------------1---3---1---0-----------------------------------|
D|---------------------------------3---3---3-------3---3---3---5---|
   1 e + a 2 e + a 3 e + a 4 e + a 1 e + a 2 e + a 3 e + a 4 e + a

G|-----------------------------------------------------------------|
D|-----------------------------------------------------------------|
A|-0---0---0---0---0---0---0---7--/12------------------------------|
D|-----------------------------------------------------------------|
   1 e + a 2 e + a 3 e + a 4 e + a 1 e + a 2 e + a 3 e + a 4 e + a

G|-----------------------------------------------------------------|
D|-----------------------------------------------------------------|
A|-1---------------------------------------------------------------|
D|-----------------------------------------------------------------|
   1 e + a 2 e + a 3 e + a 4 e + a 1 e + a 2 e + a 3 e + a 4 e + a
Tabbed by Dave Vucko
Suggest correction
Creating personal tab
Creating personal tab
You can edit any tab online and save it as your Personal.

You can edit, replace or remove any tab part or add personal notes – all changes will be seen only by you.

Personal tabs can be accessed anytime from any device, even offline.
Learn more »
comments
print report bad tab
guest
You may want to rate the tab now too:
select rating
Wanna post a correction for this tab? Suggest correction