Oops, an error
Loading. Please wait.

Dear God Tab

version 1
version 1
240,005 views 78 this week
5 commentsread comments
1 2 3 4 5
x 13
add to favorites
launch autoscroll
font size
0
reset
how to read this tab
guitar tuner
Autoscroll
slow
fast
+/-
esc
set tempo
stop
Help us to improve Ultimate-Guitar.com Take our survey!
×
Author
Difficulty
novice
-------------------------------------------------------------------------------
                             DEAR GOD - Avenged Sevenfold
-------------------------------------------------------------------------------
Tabbed by: Jesse Waldron
Email: phantom_anime_detective@hotmail.com

Tuning: standard (EADGBe)

    Q    Q    S  S  E  E  E     E  E  Q    S  S  E  E  E   
e|-------1-------------------|----------------------------|
B|-------1-------------------|--------1-------------------|
G|-------2----2h-3p-2--------|--------0----0h-2p-0--------|
D|-------3-------------3--2--|-----2--2-------------3--2--|
A|-------3-------------------|--3-----3-------------------|
E|--1----1-------------------|----------------------------|

    Q     Q    Q    Q       Q    E  E  E  E  E  E     E  E  E  E  S  S  E  E  E   
e|-------------1---------|-------------------------|-----------------------------|
B|-------------3---------|--1----L-----------------|-----------------------------|
G|-------------2---------|--2----L--7--5-----------|--------------3h-5p-3--2-----|
D|--3S----0--------------|--2----L--------7--------|-----0--3--0--------------3--|
A|------------------0----|-------------------1--3--|--1--------------------------|
E|-----------------------|-------------------------|-----------------------------|


    E  E  E  E  E  E  E  E     Q    E  E  S  S  E  E  E   
e|--------------0-----------|--0----L--------------------|
B|-----------1-----1--------|--1----L--------------------|
G|--------0-----------0-----|--0----L--------------------|
D|-----2-----------------2--|--2----L--0--2h-3p-2--0--2--|
A|--3-----------------------|--3----L--------------------|
E|--------------------------|----------------------------|


    S  S  E  E  E  E  E  E  E    
e|--------------0-----0--------||
B|--------------1-----1--------||
G|--0h-2p-0--2-----------------||
D|-----------------2-----0--2--||
A|-----------------------------||
E|-----------------------------||



************************************

| h  Hammer-on
| p  Pull-off
| L  let ring

************************************
Suggest correction
comments
print report bad tab
5 comments total. Showing first comments.
0 reply
bangenbemburger 41 Mar 13, 2009 09:13 PM

this is so ridiculously wrong listen to the song dude

+1 reply
STFU_Nao 60 May 04, 2009 01:34 PM

I think the tab sounds right, it may not BE right, but you can play it and get away with it.

I'm pretty sure the intro is actually the work of two guitars, isn't it? I'm not sure, I'm not really into A7X anymore.

+1 reply
STFU_Nao 60 May 04, 2009 01:36 PM

It was also my first tab ever so, yeah, I wasn't too good at/sure of what I was doing. Haha.

guest
You may want to rate the tab now too:
select rating
Wanna post a correction for this tab? Suggest correction