Oops, an error
Loading. Please wait.

Dear God Tab

version 2
83,670 views 210 this week
4 commentsread comments
1 2 3 4 5
excellent!
x 22
add to favorites
launch autoscroll
font size
0
reset
how to read this tab
guitar tuner
Tab Pro tools
  • play this tab
  • loop segment
  • change instrument
  • show fretboard
  • metronome
×
Best way to learn
"Dear God"
Autoscroll
slow
fast
+/-
esc
set tempo
stop
Contributor
Difficulty
Tuning
intermediate
D A D G B E
----------------------------------------------------------------------------
                                 -Dear God-
----------------------------------------------------------------------------


       Here's the complete solo to Dear God. I always do my best to write
 the tabs out as easy and simple to read as possible but this solo has A
 LOT of bends/ect so I put the times in which i hope makes it easier to 
 follow along with. It's all correct it will just take some work to learn
 and get down so Good luck and I appreciate all comments/ratings!





Artist:Avenged Sevenfold
Album:Avenged Sevenfold
Song:Dear God




Tuning- Drop D - DADGBE
E-1st string
B-2nd string
G-3rd string
D-4th string
A-5th string
D-6th string



{KEY}
* - Palm Mute
x - Mute
~ - Let Ring
/ - Slide Up Guitar (with fingers)
\ - Slide Down Guitar (with fingers)
h - Hammer-On
p - Pull-Off
b - Bend
*^ - Pinch Harmonic
TR - Trill
[ ] - Bend back down to note in brackets




*-Build up at (4:07)-*

****************************************************************************
(Build up to solo X2) VERSION 1
E|------------------|------------------|-----------------|-----------------|
B|------------------|------------------|-----------------|-----------------|
G|------9---10---9--|------9---10---9--|------3---5---3--|-----------------|
D|------------------|------------------|-----------------|------7---5/7-5p3|
A|-5--5---5----5---5|-4--4---4----4---4|-1--1---1---1---1|-----------------|
D|------------------|------------------|-----------------|--3-3---3--------|

****************************************************************************
                                     -OR-
****************************************************************************
(Build up to solo X2) VERSION 2
E|------------------|------------------|-----------------|-----------------|
B|------------------|------------------|-----------------|-----------------|
G|------9---10---9--|------9---10---9--|------5---7---5--|-----------------|
D|--------7----7---7|--------7----7---7|--------3---3---3|------7---5/7-5p3|
A|-5--5-------------|-4--4-------------|-1--1------------|-----------------|
D|------------------|------------------|-----------------|--3-3---3--------|

****************************************************************************





Start..
Lead Guitar 1...
(4:22)
E|-----13----------------12-----------------------------/17-15-------------|
B|-13b----13b--------12b----12b------/13b--13b-p11-13b---------18-17b-[17]-|
G|-------------------------------------------------------------------------|
D|-------------------------------------------------------------------------|
A|-------------------------------------------------------------------------|
D|-------------------------------------------------------------------------|

(4:28)
E|-------------------------9----9---------------------/13-12-10------------|
B|-15----------18-----18---12b--12b----------/11-11~-------------13-13b~---|
G|----17---17b----17b----------------/14p12--------------------------------|
D|-------------------------------------------------------------------------|
A|-------------------------------------------------------------------------|
D|-------------------------------------------------------------------------|

(4:35)
E|-10---10-----9----9------------------------------------------------------|
B|-13b--13b~---12b--12b~-p10-11-11-11b--10---------------------------------|
G|-----------------------------------------10------------------------------|
D|--------------------------------------------10\8\7/8\7-------------------|
A|-------------------------------------------------------8\5---------------|
D|-------------------------------------------------------------------------|

(4:43)
E|-------------------------------------------------------------------------|
B|-------------------------11-13p11-10-------------------------------------|
G|-10-10/12\10-9--10b-10~--------------10-------12b~--12b-12b-p10-----10~--|
D|----------------------------------------10\8--------------------h12------|
A|-------------------------------------------------------------------------|
D|-------------------------------------------------------------------------|

(4:50)
E|-------------------------------------------------------------------------|
B|-------------------------------------------------------------------------|
G|-10h12-12b-12b--p10-----10~-10h12-12b-12b-p10-----13b~-15b~-15b~---------|
D|--------------------h12-----------------------h12------------------------|
A|-------------------------------------------------------------------------|
D|-------------------------------------------------------------------------|

(4:55)
E|-------------------------------------------------------------------------|
B|----------------------------------------------------------------20b------|
G|-17b~-17b-p15h17b~-17b---16b~-16b-p14h16b~-16b---19b-19b~---/17----------|
D|-------------------------------------------------------------------------|
A|-------------------------------------------------------------------------|
D|-------------------------------------------------------------------------|

(5:01)
E|--------------------------------------/18--17b---17-15-------------------|
B|-20b-p18-20---15~--/18-17~-18b--18~--------------------18----------------|
G|-------------------------------------------------------------------------|
D|-------------------------------------------------------------------------|
A|-------------------------------------------------------------------------|
D|-------------------------------------------------------------------------|

(5:09)
E|-------20--------20--------21--------21--------22b~---/17-15----/17-15---|
B|-20/22-----20/22-----20/22-----20/22-----20/22---------------18----------|
G|-------------------------------------------------------------------------|
D|-------------------------------------------------------------------------|
A|-------------------------------------------------------------------------|
D|-------------------------------------------------------------------------|

(5:15)
E|----15-------------------------------------------------------------------|
B|-18----------------------------------------------------------------------|
G|--------/19---17-------/19---17-------/18----14----14------/12-10----10--|
D|-----------------19-------------19--------------17-----17---------12-----|
A|-------------------------------------------------------------------------|
D|-------------------------------------------------------------------------|

(5:20)
E|------------------------------|--------------------|---------------------|
B|----------13~-----------------|--------------------|---------------------|
G|----------12b~---12p10--------|-12b-[12]p10-----10-|->->->-Repeat--------|
D|-12-10-----------------12-10--|-------------h12----|->->->-6-Times-------|
A|------------------------------|--------------------|---------------------|
D|------------------------------|--------------------|---------------------|

(5:26)
E|---------------------------------------10--10----13-----12---12-----15---|
B|---------------------------------------13b-13b---16b~---15b--15b----18b~-|
G|-17b--17b~~------------------17------------------------------------------|
D|--------------15-17-15-17/19----19---------------------------------------|
A|-------------------------------------------------------------------------|
D|-------------------------------------------------------------------------|

(5:33)
E|-13--13-----18--------------------------10--10----13-----12--12----15----|
B|-16b-16b----21b~---20b-[20]-18-20-------13b-13b---16b----15b-15b---18b~--|
G|----------------------------------17b------------------------------------|
D|-------------------------------------------------------------------------|
A|-------------------------------------------------------------------------|
D|-------------------------------------------------------------------------|

(5:40)                                 (5:43)
E|-13---13----10-----------------------|----------------------------10-13-|
B|-16b--16b---13b~---/13-/14-----------|-------------------------11-------|
G|---------------------------/12~p10---|-10~-12/14--9~-10/12--10----------|
D|-------------------------------------|----------------------------------|
A|-------------------------------------|--->--->-Outro--->---Outro--->--->|
D|-------------------------------------|----------------------------------|

(5:48)
E|--------10p8--------|----------------------------------------------------|
B|-13-10--------11h13-|----------------------------------------------------|
G|--------------------|----Outro-repeats-untill-the-end->->->->->->-(6:34)-|
D|--------------------|----------------------------------------------------|
A|--->---Outro--->--->|----------------------------------------------------|
D|--------------------|----------------------------------------------------|

       Good Luck
             Tabbed by Jake...


comments
print report bad tab
4 comments total. Showing first comments. show 1 bad comment
+2 reply
Phycopath09 wrote on May 29 2010, 11:38 am

i doesnt really matter becaus no note is played on the sixth string, good job dude 5 stars

+1 reply
4ris wrote on May 18 2011, 04:25 pm

Nice tam dude. thanks a lot.

I want to post or [tab]
guest
You may want to rate the tab now too:
select rating
Please do not post tabs as comments. Select "correction" instead!