Oops, an error
Loading. Please wait.
We have Chord Pro version of Dear God.
It's the closest thing you can get to the original song and it has interactive parts. Check out the tab »
×
12,476 views 15 this week
no commentswrite comment
1 2 3 4 5
x 4
add to favorites
launch autoscroll
font size
0
reset
how to read this tab
guitar tuner
backing track
0:00
0:00
Autoscroll
slow
fast
+/-
esc
set tempo
stop
Author
Difficulty
Tuning
intermediate
D A D G B E
Tabbed by: Lee Carlson

Solo starts at 4:20, Sort of confused me when I was learning it so I figured i'd share 
that with you all!

KEY:
^      -  Bend
(#)    - How far to bend
~      - Vibrato
*      - Tremolo Picking
h      - Hammer On
p      - Pull Off

         (Clean 2:40)

e|----------------------------------------------------------17-15-17---------------|
B|-13^(15)-13^(15)-12^(14)-12^(14)-13^(15)-13^(15)^13/15-13--------17/15--------18-|
G|---------------------------------------------------------------------17-17^(19)--|
D|---------------------------------------------------------------------------------|
A|---------------------------------------------------------------------------------|
E|---------------------------------------------------------------------------------|

-----------------------------------------------|
------18---14--14---------------18-17-15---15--|
17^(19)----17--17-14-----15-15-----------17----|
---------------------17~------15---------------|
-----------------------------------------------|
-----------------------------------------------|

          (Distorted 4:34)

e|-10^-10^~-9^--9^~-6^-6^~---------------------------------------------------|
B|-13^-13^~-12^-12~-9^-9^~---------------------------------------------------|
G|-------------------------/17-15/14---------------------10-/12-10-9-/12-10--|
D|----------------------------------15---------------------------------------|
A|------------------------------------15/13/12h13p12-------------------------|
E|--------------------------------------------------15-12~-------------------|

--------------------------------------------------------------------|
--------------------------------------------------------------------|
-/15/17-15/14--------12~--12^-12^-10-7-10~-12^-12^-10-7-10~-12^-12--|
-------------15-----------------------------------------------------|
---------------15/12------------------------------------------------|
--------------------------------------------------------------------|

--------------------------------17-15--------------------------------------|
-------------------------18^*-15-----17-15-13-/15-/18-17-/-20-18/23-22/23--|
-15^*-16^*-17^*-18^*-16^*--------------------------------------------------|
---------------------------------------------------------------------------|
---------------------------------------------------------------------------|
---------------------------------------------------------------------------|

--------15-17-20--15-17-20--15-17-21--15-17-21--15-17-22~--------------|
-----------------------------------------------------------------------|
-22-20--------------------------------------------------12^10-12^10-12-|
------22---------------------------------------------------------------|
-----------------------------------------------------------------------|
-----------------------------------------------------------------------|

--------------------------------------------------------------------|
---------------------------------------------10^10^10^10^-----------|
---------------------------------------------12^12^12^12^-12-10--12-|
-12-10--12-10--------------------------------------------------10---|
------12-----12/16-12/10/12-10/8-10/8/5-8-5-8-----------------------|
--------------------------------------------------------------------|

------------------------------------------------------------------------------|
------------------------------------------------------------------------------|
12^10121012~10121012~10121012~10121012~10121012~-17^-12-14-12-14^(16)^14-12---|
--------------------------------------------------------------------------15--|
------------------------------------------------------------------------------|
------------------------------------------------------------------------------|

-10^10^-13^-12^12^-15^-13^13^-18^-17-15--15----11^11^-13^-12^12^-15^-13^13^-|
-13^13^-16^-15^15^-18^-16^16^-21^------18--14~-14^14^-16^-15^15^-18^-16^16^-|
----------------------------------------------------------------------------|
----------------------------------------------------------------------------|
----------------------------------------------------------------------------|
----------------------------------------------------------------------------|

-10^-8^--10^-5^-----------------------------------------------------------|
-13^-11^-13^-8^-p6--------------------------------------------------------|
--------------------------------------------15-19-22-17-14-19-17-15-------|
---------------------/15-17-19-/14-15-17-/15-----------------------19-15/-|
--------------------------------------------------------------------------|
--------------------------------------------------------------------------|

-----------------------------------------------------------|
-----------------------------------------------------------|
------------------------15-19-22-17-14-15------------------|
-/15-17-19-/14-15-17-/15-----------------17~-14/15---------|
-----------------------------------------------------------|
-----------------------------------------------------------|
Suggest correction
comments
print report bad tab
guest
You may want to rate the tab now too:
select rating
Wanna post a correction for this tab? Suggest correction