Oops, an error
Loading. Please wait.

Dear God Tab

version 1
675,810 views 681 this week
39 commentsread comments
1 2 3 4 5
accurate
x 44
add to favorites
launch autoscroll
font size
0
reset
how to read this tab
guitar tuner
Autoscroll
slow
fast
+/-
esc
set tempo
stop
Help us to improve Ultimate-Guitar.com Take our survey!
×
Author
Difficulty
advanced
Dear God
Avenged Sevenfold

Transcribed by Seth "Shadows" Sanders {F.u.c.kallyourfalsebeauty@hotmail.com}

Gtr I (E A D G B E) - 'Rhythm Acous. (Acoustic w/Steel Strings)'
Gtr II (E A D G B E) - 'Lead Acous. (Acoustic w/Steel Strings)'
Gtr III (D A D G B E) - 'Rhythm Guitar (Elec. w/Distortion)'
Gtr IV (D A D G B E) - 'Lead Guitar I (Elec. w/Distortion)'
Gtr V (D A D G B E) - 'Lead Guitar II (Elec. w/Distortion)'
Gtr VI (D A D G B E) - 'Lead Guitar III (Clean Elec. w/Chorus)'


[Intro]

   Q=137
   F                    C                 Em/G    Dm
  4/4
   Gtr I
e|-^1-------1-----1-1-|-^0--------0---0---0-(0)-|-^1-----1---1-1-|
B|-^1-------1-----1-1-|-^1--------1---1---x--x--|-^3-----3---3-3-|
G|-^2-------2-----2-2-|-^0--------0---0---0-(0)-|-^2-----2---2-2-|
D|-^3-------3-----3-3-|-^2--------2---2---x--x--|-^0-----0---0-0-|
A|-^0-------0-----0-0-|-^3--------3---3---------|----------------|
E|-^1-------1-----1-1-|-------------------------|----------------|
 
   Gtr II
                                                             ~
e|-----^1-------------|-------!0----------------|----------------|
B|-----^1-------------|-------!1----------------|--------6-x-6---|
G|-----^2---2h3p2-----|-----2-!0--0h2p0---------|--------7-x-7---|
D|-----^3---------3p2-|--3----!2--------3p2-----|--------7-x-7---|
A|--0--^0-------------|-------!3----------------|--8S=5----------|
E|-----^1-------------|-------------------------|----------------|
 
   Gtr VI
    <
            ~~~                ~~                        ~~~~~~
e|-10-----------------|-------------------------|----------------|
B|---------10---------|--8----------------------|-10-------------|
G|-10-----------------|----10p=9--------7h9-----|--------9---9---|
D|--------------------|-------------------------|----------------|
A|--------------------|-------------------------|----------------|
E|--------------------|-------------------------|----------------|


   Am                     Bb                   F
e|-^0-----0-----0-0---0-|-^1---1-----1-1-----|-^1--------1--1-1-------|
B|-^1-----1-----1-1---1-|-^3---3-----3-3-----|-^1--------1--1-1-------|
G|-^2-----2-----2-2---2-|-^3---3-----3-3-----|-^2--------2--2-2-------|
D|-^2-----2-----2-2---2-|-^3---3-----3-3-----|-^3--------3--3-3-------|
A|-^0-----0-----0-0---0-|-^1---1-----1-1-----|-^0--------0--0-0-------|
E|----------------------|--------------------|-^1--------1--1-1-------|
 
e|--0-------------------|--------------------|--------0-------0-------|
B|--1---3p1-------------|------------1-------|-----------1------1-----|
G|--2-------2-----------|--------------3p2---|------0-------------0---|
D|--2---------2---------|----0-3-0---------3-|----2-----------------2-|
A|--------------0h==3---|--1-----------------|--3---------------------|
E|----------------------|--------------------|------------------------|
 
    ~~~~~~~~~~~~~~~~~~~~~~~~~
e|----------------------|----------/10-------|--8---------------------|
B|----------------------|--------------------|----------10------------|
G|-12-----9-------------|--------------------|------------------------|
D|----------------------|-12-----------------|------------------------|
A|----------------------|--------------------|------------------------|
E|----------------------|--------------------|------------------------|


   C                      C
e|-^0-----0---0---0-(0)-|-^0------0-0-0-0-0--0-||
B|-^1-----1---1---x--x--|-^1------1-1-1-1-1--1-||
G|-^0-----0---0---0-(0)-|-^0------0-0-0-0-0--0-||
D|-^2-----2---2---x--x--|-^2------2-2-2-2-2--2-||
A|-^3-----3---3---------|-^3------3-3-3-3-3--3-||
E|----------------------|----------------------||
 
e|--0-------------------|-----------0---0------||
B|--1-------------------|-----------1---1------||
G|--0-------------------|--0h=2p0-2------------||
D|--2---0-2h3p2-0h2-----|-------------2---0--2-||
A|--3-------------------|----------------------||
E|----------------------|----------------------||
 
e|--8-------------------|-(8)---------------10-||
B|----------------------|-------------------10-||
G|----------------------|----------------------||
D|----------------------|----------------------||
A|----------------------|----------------------||
E|----------------------|----------------------||


[Verse]

    $
    F                                 C               Em/G Dm
    Gtr I
      |              |        |   |   |       |   |   | |  |     |   | |
      /              /        /   /   /       /   /   / /  /     /   / /

     Gtr II
                                                                      ~
e||-----------^-1--------------------|-----!0-------------|--------------|
B||o----------^-1--------------------|-----!1-------------|-------6-x-6--|
G||-----------^-2-----2h=3p2---------|---2-!0--0h2p0------|-------7-x-7--|
D||-----------^-3--------------3p==2-|-3---!2--------3p2--|-------7-x-7--|
A||o---0------^-0--------------------|-----!3-------------|-8S=5---------|
E||-----------^-1--------------------|--------------------|--------------|
 
     Gtr VI
e||--(10)-----(10)--(10)-----(10)\---|--------------------|--------------|
B||o-(10)b13--(10)--(10)-----(10)\---|--------------------|--------------|
G||----------------------------------|--------------------|--------------|
D||----------------------------------|--------------------|--------------|
A||o---------------------------------|--------------------|--------------|
E||----------------------------------|--------------------|--------------|


  Am                  Bb                F
  |     |     | |  |  |   |   | |       |       |  ||
  /     /     / /  /  /   /   / /       /       /  //

e|-0-----------------|-----------------|-------0-----0-(0)-(0)-(0)-|
B|-1---3p1-----------|---------1-------|---------1------1--(1)-(1)-|
G|-2-------2---------|-----------3p2---|-----0--------------0--(0)-|
D|-2---------2-------|---0-3-0-------3-|---2--------------------2--|
A|-------------0h=3--|-1---------------|-3-------------------------|
E|-------------------|-----------------|---------------------------|


  C               Em/G C
   |      |   |   | |  |     | | | | | |
   /      /   /   / /  /     / / / / / /

e|-(0)----------------|---------0---0------||
B|-(1)----------------|---------1---1-----o||
G|-(0)----------------|-0h2p0-2------------||
D|-(2)---0-2h3p2-0h2--|-----------2---0-2--||
A|--3-----------------|-------------------o||
E|--------------------|--------------------||


[Chorus]

  F                        C                 Em/G  Dm
  Gtr I
   |      |       |   |     |       |   |     | |    |          |     | |
   /      /       /   /     /       /   /     / /    /          /     / /

   Gtr V
                             ~~
e|------------------------|-----------------------|-----------------------|
B|------------------------|----------------11-11--|-(11)p10--------10-10--|
G|-10------------(10)(10)s|=12--------------------|-----------12----------|
D|------------------------|-----------------------|-----------------------|
A|------------------------|-----------------------|-----------------------|
E|------------------------|-----------------------|-----------------------|
 
   Gtr II
                                                                       ~~
e|-----^1-----------------|------!0---------------|-----------------------|
B|-----^1-----------------|------!1---------------|--------------6--x--6--|
G|-----^2--2h3p2----------|----2-!0--0h2p0--------|--------------7--x--7--|
D|-----^3----------3p==2--|--3---!2---------3p=2--|--------------7--x--7--|
A|--0--^0-----------------|------!3---------------|---8S====5-------------|
E|-----^1-----------------|-----------------------|-----------------------|


  Am                      Bb                F
    |       |     | |  |  |   |   | |        |        |  | |
    /       /     / /  /  /   /   / /        /        /  / /

e|-----------------------|-----------------|------------------------------|
B|-(10)s=6---------------|-----6---8-----6-|-(6)--------------------------|
G|---------9-9--------9--|-7---------------|-------5-5----5-5-------------|
D|-----------------------|-----------------|------------------------------|
A|-----------------------|-----------------|------------------------------|
E|-----------------------|-----------------|------------------------------|
 
e|---0-------------------|-----------------|---------0------0-(0)-(0)-(0)-|
B|---1-----3p1-----------|---------1-------|-----------1-------1--(1)-(1)-|
G|---2---------2---------|-----------3p2---|-------0---------------0--(0)-|
D|---2-----------2-------|---0-3-0-------3-|-----2---------------------2--|
A|-----------------0h=3--|-1---------------|--3---------------------------|
E|-----------------------|-----------------|------------------------------|


  C              Em/G C
  |      |   |   | |   |     | | | | | |
  /      /   /   / /   /     / / / / / /

                        ~~~
e|-5-----------------|--------------------|
B|----8-8-------6-5--|-(5)----------------|
G|-------------------|--------------------|
D|-------------------|--------------------|
A|-------------------|--------------------|
E|-------------------|--------------------|
 
e|-0-----------------|----------0---0-----|
B|-1-----------------|----------1---1-----|
G|-0-----------------|--0h2p0-2-----------|
D|-2----0-2h3p2-0h2--|------------2---0-2-|
A|-3-----------------|--------------------|
E|-------------------|--------------------|


  F                            C                 Em/G  Dm
    |        |          |  |    |       |   |     | |    |          |     | |
    /        /          /  /    /       /   /     / /    /          /     / /

                                 ~~
e|----------------------------|-----------------------|-----------------------|
B|----------------------------|----------------11-11--|-(11)p10--------10-10--|
G|-----10---------(10)-(10)s==|=12--------------------|-----------12----------|
D|-/12------------------------|-----------------------|-----------------------|
A|----------------------------|-----------------------|-----------------------|
E|----------------------------|-----------------------|-----------------------|
 
                                                                           ~~
e|--------^1------------------|------!0---------------|-----------------------|
B|--------^1------------------|------!1---------------|--------------6--x--6--|
G|--------^2--2h3p==2---------|----2-!0--0h2p0--------|--------------7--x--7--|
D|--------^3-------------3p=2-|--3---!2---------3p=2--|--------------7--x--7--|
A|---0----^0------------------|------!3---------------|---8S====5-------------|
E|--------^1------------------|-----------------------|-----------------------|


  Am                    Bb                F
   |      |     | |  |  |   |   | |        |        |  | |
   /      /     / /  /  /   /   / /        /        /  / /

e|---------------------|-----------------|------------------------------|
B|-10s=6---------------|-----6---8-----6-|-(6)--------------------------|
G|-------9-9--------9--|-7---------------|-------5-5----5-5-------------|
D|---------------------|-----------------|------------------------------|
A|---------------------|-----------------|------------------------------|
E|---------------------|-----------------|------------------------------|
 
e|--0------------------|-----------------|---------0------0-(0)-(0)-(0)-|
B|--1----3p1-----------|---------1-------|-----------1-------1--(1)-(1)-|
G|--2--------2---------|-----------3p2---|-------0---------------0--(0)-|
D|--2----------2-------|---0-3-0-------3-|-----2---------------------2--|
A|---------------0h=3--|-1---------------|--3---------------------------|
E|---------------------|-----------------|------------------------------|


  C              Em/G C
  |      |   |   | |   |     | | | | | |
  /      /   /   / /   /     / / / / / /

                        ~~~
e|-5-----------------|--------------------|
B|----8-8-------6-5--|-(5)----------------|
G|-------------------|----------------7-7-|
D|-------------------|--------------------|
A|-------------------|--------------------|
E|-------------------|--------------------|
 
e|-0-----------------|----------0---0-----|
B|-1-----------------|----------1---1-----|
G|-0-----------------|--0h2p0-2-----------|
D|-2----0-2h3p2-0h2--|------------2---0-2-|
A|-3-----------------|--------------------|
E|-------------------|--------------------|


  Bb                C                 Am
  |   |       | |   |       |   | |   |       |   | |
  /   /       / /   /       /   / /   /       /   / /

           ~                 ~                     ~
e|-----------------|-----------------|-----------------|
B|-6---6h8-8-------|-5---5h6-6-------|-5-------5---8---|
G|---7-------------|---5-------------|---5---5---5-----|
D|-----------------|-----------------|-----7-----------|
A|-----------------|-----------------|-----------------|
E|-----------------|-----------------|-----------------|
 
e|-1-------3-------|-0-------1-------|-0-----------0---|
B|---3-------3-----|---1---1---1-----|---1-----1-----1-|
G|-----3-------3---|-----0-------0---|-----2-----2-----|
D|-------3-------3-|---------------2-|-------2---------|
A|-----------------|-----------------|-----------------|
E|-----------------|-----------------|-----------------|


                                                 D.S.
  Dm       C         Bb
    |     | |         |   |   | | | |     |
    /     / /         /   /   / / / /     /

     ~~~~~~~~~~~~~~~~~~~~
e|-/17------15------|------------------|----------------||
B|------------------|-18---------------|-(18)sx-----x-x-||
G|------------------|------------------|----------------||
D|------------------|------------------|----------------||
A|------------------|------------------|----------------||
E|------------------|------------------|----------------||
 
                                           ~~~~~
e|---1-------0------|--1---------------|---5------------||
B|-----3-------1----|----3-----------3-|----------------||
G|-------2-------0--|------3-------3---|----------------||
D|------------------|--------3---3-----|----------------||
A|------------------|----------1-------|----------------||
E|------------------|------------------|----------------||


[Pre-verse]

   Gtrs I, II
e|-----||
B|-----||
G|-----||
D|-----||
A|-----||
E|-----||


[Bridge]

    Dm                Am                Bb                F
    Gtr I
    |       |         |       |         |       |         |       |
    /       /         /       /         /       /         /       /

     Gtr III
                                                                             4x
e||------------------|-----------------|-----------------|-------------------||
B||o-----------------|-----------------|-----------------|------------------o||
G||------------------|-----------------|-----------------|-------------------||
D||--7-7-------------|-2-2-------------|-3-3-------------|-------------------||
A||o-5-5-------------|-0-0-------------|-1-1-------------|-3-3--------------o||
E||------------------|-----------------|-----------------|-3-3---------------||
 
     Gtr II
     PM|   PM  PM  PM----|   PM  PM  PM----|   PM  PM  PM
                                                                             4x
e||----------1-------|---------0-------|-----------------|-------------------||
B||o-----3-------3---|-----1-------1---|---------3-------|------------------o||
G||----2---2---2---2-|---2---2---2---2-|-----3-------3---|-----------0-------||
D||--3---------------|-2---------------|---3---3---3---3-|-----3---2---3p2---||
A||o-----------------|-----------------|-1---------------|---3---3----------o||
E||------------------|-----------------|-----------------|-3-----------------||
 
     Gtr V
     PM|   PM  PM  PM----|   PM  PM  PM----|   PM  PM  PM
                                                                             4x
e||----------1-------|---------0-------|-----------------|-1-----------1p0---||
B||o-----3-------3---|-----1-------1---|---------3-------|---1--------------o||
G||------------------|-----------------|-----3-------3---|-----------0-------||
D||----0---0---0---0-|---0---0---0---0-|-0-------------0-|-----3---2---------||
A||o-1---------------|-0---------------|---1---1---1-----|-------3----------o||
E||------------------|-----------------|-----------------|-------------------||


   Gm                                   C
   Gtr I
e|-^3-------3---3-3-|-3-3-3---3-3-3---|-^0------0---0-0-|-(0)-0-0---0-0-0---||
B|-^3-------3---3-3-|-3-3-3---3-3-3---|-^1------1---1-1-|-(1)-1-1---1-1-1---||
G|-^3-------3---3-3-|-3-3-3---3-3-3---|-^0------0---0-0-|-(0)-0-0---0-0-0---||
D|-^5-------5---5-5-|-5-5-5---5-5-5---|-^2------2---2-2-|-(2)-2-2---2-2-2---||
A|-^5-------5---5-5-|-5-5-5---5-5-5---|-^3------3---3-3-|-(3)-3-3---3-3-3---||
E|-^3-------3---3-3-|-3-3-3---3-3-3---|-----------------|-------------------||
 
   Gtr II
e|--3---------------|---------------3-|--0--------------|---------------0---||
B|----3---------3---|-------------3---|----1----1-------|-------------1---1-||
G|------3---------3-|-----------3-----|------0----0-----|--0--------0-------||
D|--------5---------|-5-------5-------|-------------2---|-----2---2---------||
A|----------5-------|---5---5---------|-----------------|-------3-----------||
E|------------3-----|-----3-----------|-----------------|-------------------||


[Interlude]

     F(type 2)    C            Dm           Am
  Gtr I
     |         |  |         |  |         |  |
     /         /  /         /  /         /  /

   Gtr II
e|----1--1----|----0--0----|----1--1----|----0--0----|
B|----1--1----|----1--1----|----3--3----|----1--1----|
G|----2--2----|----0--0----|-2--2--2----|----2--2----|
D|----3--3----|-2--2--2----|----0--0----|-2--2--2----|
A|-3--3--3----|----3--3----|------------|----0--0----|
E|----1--1----|------------|------------|------------|


  Am Bb           F(type 2)    C
  |  |         |  |         |  |          |
  /  /         /  /         /  /          /

e|----1--1----|----1--1----|----0--0----|-^0-----||
B|----3--3----|----1--1----|----1--1----|-^1-----||
G|----3--3----|----2--2----|----0--0----|-^0-----||
D|-3--3--3----|----3--3----|-2--2--2----|-^2-----||
A|----1--1----|-3--3--3----|----3--3----|-^3-----||
E|------------|----1--1----|------------|--------||
 
   Gtr III
                                   <
e|------------|------------|------------|--------||
B|------------|------------|------------|--------||
G|------------|------------|-------5----|-(5)----||
D|------------|------------|-------5----|-(5)----||
A|------------|------------|-------3----|-(3)----||
E|------------|------------|------------|--------||


[Chorus]

  F                        C                 Em/G  Dm
  Gtr I
   |      |       |   |     |       |   |     | |    |          |     | |
   /      /       /   /     /       /   /     / /    /          /     / /

   Gtr V
                             ~~
e|------------------------|-----------------------|------------------------|
B|------------------------|----------------11-11--|-(11)p10--------10-10---|
G|-10------------(10)(10)s|=12--------------------|-----------12-----------|
D|------------------------|-----------------------|------------------------|
A|------------------------|-----------------------|------------------------|
E|------------------------|-----------------------|------------------------|
 
   Gtr II
                                                                       ~~
e|-----^1-----------------|------!0---------------|------------------------|
B|-----^1-----------------|------!1---------------|--------------6--x--6---|
G|-----^2--2h3p2----------|----2-!0--0h2p0--------|--------------7--x--7---|
D|-----^3----------3p==2--|--3---!2---------3p=2--|--------------7--x--7---|
A|--0--^0-----------------|------!3---------------|---8S====5--------------|
E|-----^1-----------------|-----------------------|------------------------|
|
 | Gtr III
e|------------------------|-----------------------|------------------------|
B|------------------------|-----------------------|------------------------|
G|------------------------|--5----5--5---5--5--5--|---7-----7----7--7--7-7-|
D|--3---3--3---3---3---3--|--5----5--5---5--5--5--|---7-----7----7--7--7-7-|
A|--3---3--3---3---3---3--|--3----3--3---3--3--3--|---5-----5----5--5--5-5-|
E|--3---3--3---3---3---3--|-----------------------|------------------------|


  Am                    Bb                F
   |      |     | |  |  |   |   | |        |        |   | |
   /      /     / /  /  /   /   / /        /        /   / /

e|---------------------|-----------------|-------------------------------|
B|-10s=6---------------|-----6---8-----6-|-(6)---------------------------|
G|-------9-9--------9--|-7---------------|-------5-5-----5-5-------------|
D|---------------------|-----------------|-------------------------------|
A|---------------------|-----------------|-------------------------------|
E|---------------------|-----------------|-------------------------------|
 
e|--0------------------|-----------------|---------0-------0-(0)-(0)-(0)-|
B|--1----3p1-----------|---------1-------|-----------1--------1--(1)-(1)-|
G|--2--------2---------|-----------3p2---|-------0----------------0--(0)-|
D|--2----------2-------|---0-3-0-------3-|-----2----------------------2--|
A|---------------0h=3--|-1---------------|--3----------------------------|
E|---------------------|-----------------|-------------------------------|
 
e|---------------------|-----------------|-------------------------------|
B|---------------------|-----------------|-------------------------------|
G|--2--2---2-2---2--2--|-3---3---3-3-3-3-|-------------------------------|
D|--2--2---2-2---2--2--|-3---3---3-3-3-3-|--3----3---3-3-3-3-------------|
A|--0--0---0-0---0--0--|-1---1---1-1-1-1-|--3----3---3-3-3-3-------------|
E|---------------------|-----------------|--3----3---3-3-3-3-------------|


  C              Em/G C
  |      |   |   | |   |      | | | | | |
  /      /   /   / /   /      / / / / / /

                        ~~~
e|-5-----------------|---------------------|
B|----8-8-------6-5--|-(5)-----------------|
G|-------------------|---------------------|
D|-------------------|---------------------|
A|-------------------|---------------------|
E|-------------------|---------------------|
 
e|-0-----------------|-----------0---0-----|
B|-1-----------------|-----------1---1-----|
G|-0-----------------|--0h=2p0-2-----------|
D|-2----0-2h3p2-0h2--|-------------2---0-2-|
A|-3-----------------|---------------------|
E|-------------------|---------------------|
 
e|-------------------|---------------------|
B|-------------------|---------------------|
G|-5--5---5---5-5-5--|-(5)-----------------|
D|-5--5---5---5-5-5--|-(5)-----------------|
A|-3--3---3---3-3-3--|-(3)-----------------|
E|-------------------|---------------------|


  F                            C                 Em/G  Dm
    |        |          |  |    |       |   |     | |    |          |     | |
    /        /          /  /    /       /   /     / /    /          /     / /

                                 ~~
e|----------------------------|-----------------------|------------------------|
B|----------------------------|----------------11-11--|-(11)p10--------10-10---|
G|-----10---------(10)-(10)s==|=12--------------------|-----------12-----------|
D|-/12------------------------|-----------------------|------------------------|
A|----------------------------|-----------------------|------------------------|
E|----------------------------|-----------------------|------------------------|
 
                                                                           ~~
e|--------^1------------------|------!0---------------|------------------------|
B|--------^1------------------|------!1---------------|--------------6--x--6---|
G|--------^2--2h3p==2---------|----2-!0--0h2p0--------|--------------7--x--7---|
D|--------^3-------------3p=2-|--3---!2---------3p=2--|--------------7--x--7---|
A|---0----^0------------------|------!3---------------|---8S====5--------------|
E|--------^1------------------|-----------------------|------------------------|
 
e|----------------------------|-----------------------|------------------------|
B|----------------------------|-----------------------|------------------------|
G|----------------------------|--5----5--5---5--5--5--|---7-----7----7--7--7-7-|
D|---3-----3--3-----3----3--3-|--5----5--5---5--5--5--|---7-----7----7--7--7-7-|
A|---3-----3--3-----3----3--3-|--3----3--3---3--3--3--|---5-----5----5--5--5-5-|
E|---3-----3--3-----3----3--3-|-----------------------|------------------------|


  Am                    Bb                F
   |      |     | |  |  |   |   | |        |        |   | |
   /      /     / /  /  /   /   / /        /        /   / /

e|---------------------|-----------------|-------------------------------|
B|-10s=6---------------|-----6---8-----6-|-(6)---------------------------|
G|-------9-9--------9--|-7---------------|-------5-5-----5-5-------------|
D|---------------------|-----------------|-------------------------------|
A|---------------------|-----------------|-------------------------------|
E|---------------------|-----------------|-------------------------------|
 
e|--0------------------|-----------------|---------0-------0-(0)-(0)-(0)-|
B|--1----3p1-----------|---------1-------|-----------1--------1--(1)-(1)-|
G|--2--------2---------|-----------3p2---|-------0----------------0--(0)-|
D|--2----------2-------|---0-3-0-------3-|-----2----------------------2--|
A|---------------0h=3--|-1---------------|--3----------------------------|
E|---------------------|-----------------|-------------------------------|
 
e|---------------------|-----------------|-------------------------------|
B|---------------------|-----------------|-------------------------------|
G|--2--2---2-2---2--2--|-3---3---3-3-3-3-|-------------------------------|
D|--2--2---2-2---2--2--|-3---3---3-3-3-3-|--3----3---3-3-3-3-------------|
A|--0--0---0-0---0--0--|-1---1---1-1-1-1-|--3----3---3-3-3-3-------------|
E|---------------------|-----------------|--3----3---3-3-3-3-------------|


  C              Em/G C
  |      |   |   | |   |      | | | | | |
  /      /   /   / /   /      / / / / / /

                        ~~~
e|-5-----------------|---------------------|
B|----8-8-------6-5--|-(5)-----------------|
G|-------------------|-----------------7-7-|
D|-------------------|---------------------|
A|-------------------|---------------------|
E|-------------------|---------------------|
 
e|-0-----------------|-----------0---0-----|
B|-1-----------------|-----------1---1-----|
G|-0-----------------|--0h=2p0-2-----------|
D|-2----0-2h3p2-0h2--|-------------2---0-2-|
A|-3-----------------|---------------------|
E|-------------------|---------------------|
 
e|-------------------|---------------------|
B|-------------------|---------------------|
G|-5--5---5---5-5-5--|-(5)-----------------|
D|-5--5---5---5-5-5--|-(5)-----------------|
A|-3--3---3---3-3-3--|-(3)-----------------|
E|-------------------|---------------------|


  Bb                C                 Am
  |   |       | |   |       |   | |   |       |   | |
  /   /       / /   /       /   / /   /       /   / /

           ~                 ~                     ~
e|-----------------|-----------------|-----------------|
B|-6---6h8-8-------|-5---5h6-6-------|-5-------5---8---|
G|---7-------------|---5-------------|---5---5---5-----|
D|-----------------|-----------------|-----7-----------|
A|-----------------|-----------------|-----------------|
E|-----------------|-----------------|-----------------|
 
e|-1-------3-------|-0-------1-------|-0-----------0---|
B|---3-------3-----|---1---1---1-----|---1-----1-----1-|
G|-----3-------3---|-----0-------0---|-----2-----2-----|
D|-------3-------3-|---------------2-|-------2---------|
A|-----------------|-----------------|-----------------|
E|-----------------|-----------------|-----------------|
 
e|-----------------|-----------------|-----------------|
B|-----------------|-----------------|-----------------|
G|-3---3---3-------|-5-------5-------|-2---------------|
D|-3---3---3-------|-5-------5-------|-2---------------|
A|-1---1---1-------|-3-------3-------|-0---------------|
E|-----------------|-----------------|-----------------|


  Dm       C         Bb
    |     | |         |   |   | | | |     |
    /     / /         /   /   / / / /     /

     ~~~~~~~~~~~~~~~~~~~~                      ~~~~~~~
e|-/17------15------|------------------|------------------------||
B|------------------|-18---------------|-(18)S22-(22)----(22)sx-||
G|------------------|------------------|------------------------||
D|------------------|------------------|------------------------||
A|------------------|------------------|------------------------||
E|------------------|------------------|------------------------||
 
                                           ~~~~~
e|---1-------0------|--1---------------|---5--------------------||
B|-----3-------1----|----3-----------3-|------------------------||
G|-------2-------0--|------3-------3---|------------------------||
D|------------------|--------3---3-----|------------------------||
A|------------------|----------1-------|------------------------||
E|------------------|------------------|------------------------||
 
e|------------------|------------------|------------------------||
B|------------------|------------------|------------------------||
G|---7-------5------|--3---------------|--(3)-------------------||
D|---7-------5------|--3---------------|--(3)-------------------||
A|---5-------3------|--1---------------|--(1)-------------------||
E|------------------|------------------|------------------------||


[Pre-solo]

     Gtr I
     PM|   PM  PM  PM----|   PM  PM  PM-
e||----------1-------|---------0-------|
B||o-x-x-3-------3---|-x-x-1-------1---|
G||--x-x---2---2---2-|-x-x---2---2---2-|
D||------------------|-----------------|
A||o-----------------|-----------------|
E||------------------|-----------------|
 
     Gtr III
e||------0---1---0---|-----0---1---0---|
B||o-----------------|-----------------|
G||--2-2-------------|-----------------|
D||--0-0-------------|-2-2-------------|
A||o-----------------|-0-0-------------|
E||------------------|-----------------|


 ---|   PM  PM  PM
|-----------------|-----------------------||
|---------3-------|----------------------o||
|-x-x-3-------3---|------------0----------||
|-x-x---3---3---3-|-x-x-3----2---3p=2-----||
|-----------------|-x-x---3--------------o||
|-----------------|-----------------------||
 
                              ~~
e|-----------------|-----------------------||
B|-----1---3---1---|----------------------o||
G|-----------------|-----------------------||
D|-3-3-------------|-----------------------||
A|-1-1-------------|-3-3------------------o||
E|-----------------|-3-3-3---/7-----(7)\---||


[Guitar solo]

          D    AF      AD A          C    AE      AC A
  Gtr I
   |    |   |  | |     || |   |    |   |  | |     || |
   x    x   o  o o     oo o   x    x   o  o o     oo o

   Gtr IV
e|--------------------------|--------------------------|
B|-15------(15)--15---------|-13------(13)--13---------|
G|-17b19---(17)--17pb19-----|-15b17---(15)--15pb17-----|
D|--------------------------|--------------------------|
A|--------------------------|--------------------------|
E|--------------------------|--------------------------|
 
   Gtr III
e|-----------0----1------0--|-----------0----1------0--|
B|--------------------------|--------------------------|
G|--2----2------------------|--------------------------|
D|--0----0------------------|--2----2------------------|
A|--------------------------|--0----0------------------|
E|--------------------------|--------------------------|


          BbFD  F  Bb F                   C     E   GF  E
   |    | | | |  |  |  |    |  |       |    |     | | |  |
   x    x o o o  o  o  o    x  x       /    o     o o o  o

e|------------------------|----15b17==(15)r(15)\--------------|
B|-13b15------15p13----15-|-13-------------------/17--15------|
G|------------------14----|------------------------------17---|
D|------------------------|-----------------------------------|
A|------------------------|-----------------------------------|
E|------------------------|-----------------------------------|
 
                                                   ~~~
e|------------------------|-----------------------------------|
B|---------1---3-----1----|-----------------------------------|
G|------------------------|-----------------------------------|
D|--3----3----------------|-----------------------------------|
A|--1----1----------------|--3--3-----------------------------|
E|------------------------|--3--3-------3---------/7-----(7)\-|


             D  AF     A    D  A             C     A    E A     C   A
   |      |   | | |      |   | |   |      |   |      |  |   |     | |
   x      x   o o o      o   o o   x      x   o      o  o   o     o o

e|-------------------------------|------------------------------------|
B|------------18-------------18--|-16----(16)-16----(16)---(16)\------|
G|-17b19-(17)-----17b19-(17)-----|-17b18-(17)-17b18-(17)---(17)\------|
D|-------------------------------|-------------------------------/19--|
A|-------------------------------|------------------------------------|
E|-------------------------------|------------------------------------|
 
e|-------------0---1----------0--|-------------0---------1---------0--|
B|-------------------------------|------------------------------------|
G|--2------2---------------------|------------------------------------|
D|--0------0---------------------|--2------2--------------------------|
A|-------------------------------|--0------0--------------------------|
E|-------------------------------|------------------------------------|


      Bb FD  FBbF             C  E  GFE
  | |  | | | ||  |    |  |  |  |  | || |
  x x  o o o oo  o    x  x  /  o  o oo o

            ~~                     ~~
e|------------------|-----------------------|
B|------------------|-18s17-----------------|
G|-----19--19-------|-------19p17-19--------|
D|-x-------------19-|-----------------------|
A|------------------|-----------------------|
E|------------------|-----------------------|
 
                                   ~~
e|------------------|-----------------------|
B|------1---3--1----|-----------------------|
G|------------------|-----------------------|
D|-3-3--------------|-----------------------|
A|-1-1--------------|--3--3-----------------|
E|------------------|--3--3--3----/7---(7)\-|


              D     AF    AD A            C     AE    AC A
  Gtr I
    |      |   |    |  |  ||  |    |    |  |    |  |  ||  |
    x      x   o    o  o  oo  o    x    x  o    o  o  oo  o

   Gtr IV
     ~~~~~~
e|-------------------------------|---------------------------|
B|-------------------------------|---------------------------|
G|-(19)---(19)s=x----------------|---------------------------|
D|-------------------------------|---------------------------|
A|-------------------------------|---------------------------|
E|-------------------------------|---------------------------|
 
   Gtr V
                        ~~~~                        ~~~~
e|-------------------------------|---------------------------|
B|--13b15------13b15--(13)-------|-11b14---11b14--(11)-------|
G|----------------------------14-|------------------------14-|
D|-------------------------------|---------------------------|
A|-------------------------------|---------------------------|
E|-------------------------------|---------------------------|
 
   Gtr III
e|--------------0-------1---0----|----------0-------1---0----|
B|-------------------------------|---------------------------|
G|---2------2--------------------|---------------------------|
D|---0------0--------------------|--2----2-------------------|
A|-------------------------------|--0----0-------------------|
E|-------------------------------|---------------------------|


       Bb FD     FBbF               C  E  G  F  E
   | |  | | |    ||   |     |  |  |  |  |  |  |  |
   x x  o o o    oo   o     x  x  /  o  o  o  o  o

e|------------------------|---------------------------|
B|------------------------|---------------------------|
G|------------------------|---------------------------|
D|------------------------|---------------------------|
A|------------------------|---------------------------|
E|------------------------|---------------------------|
 
e|------------------------|---------------------------|
B|-11---11--11b13r===(11)-|-10------------------------|
G|------------------------|----10---------------------|
D|------------------------|-------10----------10-12---|
A|------------------------|----------13-12-13---------|
E|------------------------|---------------------------|
 
                                         ~~
e|------------------------|---------------------------|
B|-------1---3-----1------|---------------------------|
G|------------------------|---------------------------|
D|--3-3-------------------|---------------------------|
A|--1-1-------------------|--3--3---------------------|
E|------------------------|--3--3--3----/7-------(7)\-|


       D    A   F   AD      A      C AE   AC   A
   | |   |   |    | | |     |  | | | | |  | |  |
   x x   o   o    o o o     o  x x o o o  o o  o

e|----------------------------|------------------|
B|----------------------------|------------------|
G|----------------------------|------------------|
D|----------------------------|------------------|
A|----------------------------|------------------|
E|----------------------------|------------------|
 
e|----------------------------|------------------|
B|----------------------------|------------------|
G|---------------/10--10pb12r=|=9------(9)s=12\--|
D|-12---(12)s15\--------------|------------------|
A|----------------------------|------------------|
E|----------------------------|------------------|
 
e|--------0--------1---0------|-----0---1----0---|
B|----------------------------|------------------|
G|--2-2-----------------------|------------------|
D|--0-0-----------------------|-2-2--------------|
A|----------------------------|-0-0--------------|
E|----------------------------|------------------|


       Bb   FD  FBb F             CE    GFE
   | |   |  | | | |  |    |  |  | |  |  || |
   x x   o  o o o o  o    x  x  / o  o  oo o

e|----------------------|-----------------------|
B|----------------------|-----------------------|
G|----------------------|-----------------------|
D|----------------------|-----------------------|
A|----------------------|-----------------------|
E|----------------------|-----------------------|
 
e|----------------------|-----------------------|
B|----------------13p11-|-10--------------------|
G|-10---(10)s=15--------|----10-----/12\--------|
D|----------------------|-------10--------------|
A|----------------------|-----------------------|
E|----------------------|-----------------------|
 
                                      ~~~~
e|----------------------|-----------------------|
B|--------1----3---1----|-----------------------|
G|----------------------|-----------------------|
D|--3-3-----------------|-----------------------|
A|--1-1-----------------|--3--3-----------------|
E|----------------------|--3--3--3---/7----(7)\-|


                D A     F  AD A                     C A     E  AC A
   |    |       |  |     | ||   |      |    |       |  |     | ||   |
   x    x       o  o     o oo   o      x    x       o  o     o oo   o

e|-----------------------------------|-----------------------------------|
B|-----------------------------------|-----------------------------------|
G|-----------------------------------|-----------------------------------|
D|-----------------------------------|-----------------------------------|
A|-----------------------------------|-----------------------------------|
E|-----------------------------------|-----------------------------------|
 
                          ~~                                  ~~
e|-----------------------------------|-----------------------------------|
B|-----------------------------------|-----------------------------------|
G|-12b14---12b14---10----10----(10)\-|-12b14---12b14---10----10----(10)\-|
D|--------------------10-------------|--------------------10-------------|
A|-----------------------------------|-----------------------------------|
E|-----------------------------------|-----------------------------------|
 
e|---------------0--------1--0-------|---------------0--------1--0-------|
B|-----------------------------------|-----------------------------------|
G|--2----2---------------------------|-----------------------------------|
D|--0----0---------------------------|--2----2---------------------------|
A|-----------------------------------|--0----0---------------------------|
E|-----------------------------------|-----------------------------------|


                BbF     D  FBbF                CE    GF    E
   |    |       |  |     | || |   |     |   |  |  |  |  |   |
   x    x       o  o     o oo o   x     x   /  o  o  o  o   o

e|------------------------------|--------------------------------|
B|------------------------------|--------------------------------|
G|------------------------------|--------------------------------|
D|------------------------------|--------------------------------|
A|------------------------------|--------------------------------|
E|------------------------------|--------------------------------|
 
                          ~~
e|------------------------------|--------------------------------|
B|-----------------------11-----|-11b13====(11)--(11)--(11)------|
G|-12b14---12b14---10-----------|--------------------------------|
D|--------------------10--------|--------------------------------|
A|------------------------------|--------------------------------|
E|------------------------------|--------------------------------|
 
                                                   ~~~~
e|------------------------------|--------------------------------|
B|---------------1--------3--1--|--------------------------------|
G|------------------------------|--------------------------------|
D|--3----3----------------------|--------------------------------|
A|--1----1----------------------|--3-----3-----------------------|
E|------------------------------|--3-----3---3----/7--------(7)\-|


         D     A     F  AD A        C A     E  AC A
    |  |   |    |     | || |    | | |  |     | || |
    x  x   o    o     o oo o    x x o  o     o oo o

                       ~~                     ~~
e|---------------------------|----------------------|
B|-/15----------15-15-15-----|-/14-----14-14-14-----|
G|---------------------------|----------------------|
D|---------------------------|----------------------|
A|---------------------------|----------------------|
E|---------------------------|----------------------|
 
e|---------------------------|----------------------|
B|-(11)---(11)rs=x-----------|----------------------|
G|---------------------------|----------------------|
D|---------------------------|----------------------|
A|---------------------------|----------------------|
E|---------------------------|----------------------|
 
e|----------0----------1--0--|-------0--------1--0--|
B|---------------------------|----------------------|
G|---2--2--------------------|----------------------|
D|---0--0--------------------|---2-2----------------|
A|---------------------------|---0-0----------------|
E|---------------------------|----------------------|


          Bb     FD    FBbF            CE  G  F  E
   |    |   |    |  |  || |   |  |   | | |  |  |  |
   x    x   o    o  o  oo o   x  x   / o o  o  o  o

             ~~~~~~            PM|
e|--------------------------|-------/17--17p15---------|
B|-18b20---(18)-------------|------------------18p17---|
G|--------------------------|--------------------------|
D|--------------------------|--------------------------|
A|--------------------------|-17-17--------------------|
E|--------------------------|--------------------------|
 
                     ~~~~      PM|
e|--------------------------|--------/5---5p=3--5p=3---|
B|----------18b20--(18)-----|--------------------------|
G|--------------------------|--------------------------|
D|--------------------------|--------------------------|
A|--------------------------|--5--5--------------------|
E|--------------------------|--------------------------|
 
                                          ~~~
e|--------------------------|--------------------------|
B|-----------1-------3---1--|--------------------------|
G|--------------------------|--------------------------|
D|--3----3------------------|--------------------------|
A|--1----1------------------|--3--3--------------------|
E|--------------------------|--3--3---3--/7-------(7)\-|


          D    AF AD  A          C    AE     AC    A
   |    |   |  || | | |   |    |   |  | |    |  |  |
   x    x   o  oo o o o   x    x   o  o o    o  o  o

e|----------------------|----------------------------|
B|------------------18--|-16b17---(16)--18b20--(18)--|
G|-18b19---(18)---------|----------------------------|
D|----------------------|----------------------------|
A|----------------------|----------------------------|
E|----------------------|----------------------------|
|
e|----------------------|----------------------------|
B|--5s===x--------------|----------------------------|
G|----------------------|----------------------------|
D|----------------------|----------------------------|
A|----------------------|----------------------------|
E|----------------------|----------------------------|
|
e|-----------0---1---0--|-----------0----1-------0---|
B|----------------------|----------------------------|
G|--2----2--------------|----------------------------|
D|--0----0--------------|--2----2--------------------|
A|----------------------|--0----0--------------------|
E|----------------------|----------------------------|


       BbFD     FBbF           CE  G  F  E
   | | | | |    || |   |  |  | | |  |  |  |
   x x o o o    oo o   x  x  / o o  o  o  o

    ~~~~~~~~~~~~~             ~~
e|-------------------|-18s22-22-----17---------|
B|-18------20b23-----|-----------------20p18---|
G|-------------------|-------------------------|
D|-------------------|-------------------------|
A|-------------------|-------------------------|
E|-------------------|-------------------------|
|
e|-------------------|-------------------------|
B|-------------------|-------------------------|
G|-------------------|-------------------------|
D|-------------------|-------------------------|
A|-------------------|-------------------------|
E|-------------------|-------------------------|
|
 |                                ~~
e|-------------------|-------------------------|
B|------1---3-----1--|-------------------------|
G|-------------------|-------------------------|
D|--3-3--------------|-------------------------|
A|--1-1--------------|--3--3-------------------|
E|-------------------|--3--3--3--/7-------(7)\-|


        D  AF  A  D  A        C  AE  A  C  A
   |  |  | | |  |  | |   |  |  | | |  |  | |
   x  x  o o o  o  o o   x  x  o o o  o  o o

e|-------20--------20--|-------21--------21--|
B|-20s22-----20s22-----|-20s22-----20s22-----|
G|---------------------|---------------------|
D|---------------------|---------------------|
A|---------------------|---------------------|
E|---------------------|---------------------|
|
e|---------------------|---------------------|
B|---------------------|---------------------|
G|---------------------|---------------------|
D|---------------------|---------------------|
A|---------------------|---------------------|
E|---------------------|---------------------|
|
e|--------0---1-----0--|--------0---1-----0--|
B|---------------------|---------------------|
G|--2--2---------------|---------------------|
D|--0--0---------------|--2--2---------------|
A|---------------------|--0--0---------------|
E|---------------------|---------------------|


        Bb FD FBbF          C  E  G  F  E
   |  |  | || || |  |  |  |  |  |  |  |  |
   x  x  o oo oo o  x  x  /  o  o  o  o  o

          ~~
e|-------22--------|---17p15----17p15----15---|
B|-20s22-----------|---------18-------18------|
G|-----------------|--------------------------|
D|-----------------|--------------------------|
A|-----------------|--------------------------|
E|-----------------|--------------------------|
|
e|-----------------|--------------------------|
B|-----------------|--------------------------|
G|-----------------|--------------------------|
D|-----------------|--------------------------|
A|-----------------|--------------------------|
E|-----------------|--------------------------|
|
 |                               ~~~
e|-----------------|--------------------------|
B|--------1--3--1--|--------------------------|
G|-----------------|--------------------------|
D|--3--3-----------|--------------------------|
A|--1--1-----------|-3--3---------------------|
E|-----------------|-3--3--3----/7-------(7)\-|


           D    A  F  A    D  A         C  A  E  AC  A
    |   |    |   |  |   |   |  |    | |  |  |  | | | |
    x   x    o   o  o   o   o  o    x x  o  o  o o o o

     ~~~
e|--------------------------------|--------------------|
B|--18------(18)s=x---------------|--------------------|
G|--------------------------------|--------------------|
D|--------------------------------|--------------------|
A|--------------------------------|--------------------|
E|--------------------------------|--------------------|
|
e|--------------------------------|--------------------|
B|-/15-(15)p=13-----15-(15)p13----|-14-----------------|
G|---------------14------------14-|------15p14-15--14--|
D|--------------------------------|--------------------|
A|--------------------------------|--------------------|
E|--------------------------------|--------------------|
|
e|------------0------1-------0----|-------0-----1---0--|
B|--------------------------------|--------------------|
G|---2---2------------------------|--------------------|
D|---0---0------------------------|--2-2---------------|
A|--------------------------------|--0-0---------------|
E|--------------------------------|--------------------|


        Bb F  D F  Bb  F            CE   G  F  E
   |  |  |  | |  |  |  |   |    | | |  |  |  |  |
   x  x  o  o o  o  o  o   x    x / o  o  o  o  o

e|-----------------------|---------------------------|
B|-----------------------|---------------------------|
G|-----------------------|-12----------14p12---------|
D|-----------------------|-14b17-------------15p12---|
A|-----------------------|---------------------------|
E|-----------------------|---------------------------|
|
 |           ~~
e|-----------------------|---------------------------|
B|-----------------------|------------/10------------|
G|-12--------------------|--9--------------9p=7--x---|
D|----15p12-15---12------|-11b14---------------------|
A|------------------15\--|---------------------------|
E|-----------------------|---------------------------|
|
 |                                      ~~~~
e|-----------------------|---------------------------|
B|--------1----3-----1---|---------------------------|
G|-----------------------|---------------------------|
D|--3--3-----------------|---------------------------|
A|--1--1-----------------|--3----3-------------------|
E|-----------------------|--3----3-3---/7-------(7)\-|


        D        A  F A        D  A              C A        E  AC  A
    | |  |        | |  |        | |   |        | |  |        | | | |
    x x  o        o o  o        o o   x        x o  o        o o o o

         PM---|        PM---|         PM---|        PM---|
e|----------------------------------|---------------------------------|
B|-/10------------10------------10--|----------10------------10-------|
G|----------------------------------|---------------------------------|
D|----------------------------------|---------------------------------|
A|-------12-12-12------12-12-12-----|-12-12-12------12-12-12-----12sxS|
E|----------------------------------|---------------------------------|
|
e|----------------------------------|---------------------------------|
B|----------------------------------|---------------------------------|
G|----------------------------------|---------------------------------|
D|----------------------------------|---------------------------------|
A|----------------------------------|---------------------------------|
E|----------------------------------|---------------------------------|
|
e|--------0----------1-----------0--|-------------0-----------1---0---|
B|----------------------------------|---------------------------------|
G|---2-2----------------------------|---------------------------------|
D|---0-0----------------------------|--2--------2---------------------|
A|----------------------------------|--0--------0---------------------|
E|----------------------------------|---------------------------------|


           BbFD FBbF                  CE   G  F  E
   |     | | || ||   |       |  |  |  |  |  |  |  |
   x     x o oo oo   o       x  x  /  o  o  o  o  o

    PM|   ~~
e|-------10---------(10)\-|----------------------------|
B|------------------------|--------------------15------|
G|------------------------|-------------/14-14----14---|
D|------------------------|-/12-12h15\-----------------|
A|-10-10------------------|----------------------------|
E|------------------------|----------------------------|
|
e|------------------------|----------------------------|
B|------------------------|----------------------------|
G|------------------------|----------------------------|
D|------------------------|----------------------------|
A|------------------------|----------------------------|
E|------------------------|----------------------------|
|
 |                                        ~~~
e|------------------------|----------------------------|
B|----------1--3--1-------|----------------------------|
G|------------------------|----------------------------|
D|--3-----3---------------|----------------------------|
A|--1-----1---------------|---3--3---------------------|
E|------------------------|---3--3--3----/7-------(7)\-|


       D  AF     AD A       C  AE     AC A
   | |  | | |    || |   | |  | | |    || |
   x x  o o o    oo o   x x  o o o    oo o

e|--------------------|--------------------|
B|-15---15--17b18-----|-17---17--18b20-----|
G|--------------------|--------------------|
D|--------------------|--------------------|
A|--------------------|--------------------|
E|--------------------|--------------------|
|
e|--------------------|--------------------|
B|--------------------|--------------------|
G|--------------------|--------------------|
D|--------------------|--------------------|
A|--------------------|--------------------|
E|--------------------|--------------------|
|
e|-------0---1-----0--|-------0---1-----0--|
B|--------------------|--------------------|
G|--2-2---------------|--------------------|
D|--0-0---------------|--2-2---------------|
A|--------------------|--0-0---------------|
E|--------------------|--------------------|


       Bb FD     FBbF              C  E  GFE
   | |  | | |    || |      |  |  |  |  | || |
   x x  o o o    oo o      x  x  /  o  o oo o

                                        ~~
e|----------17b18-----|-15s17-15----15------------|
B|-18---18------------|----------18----15---------|
G|--------------------|---------------------17----|
D|--------------------|---------------------------|
A|--------------------|---------------------------|
E|--------------------|---------------------------|
|
e|--------------------|---------------------------|
B|--------------------|---------------------------|
G|--------------------|---------------------------|
D|--------------------|---------------------------|
A|--------------------|---------------------------|
E|--------------------|---------------------------|
|
 |                                      ~~
e|--------------------|---------------------------|
B|-------1---3-----1--|---------------------------|
G|--------------------|---------------------------|
D|--3-3---------------|---------------------------|
A|--1-1---------------|-----3--3------------------|
E|--------------------|-----3--3--3----/7---(7)\--|


       D  AF     AD A       C  AE     AC A
   | |  | | |    || |   | |  | | |    || |
   x x  o o o    oo o   x x  o o o    oo o

e|--------------------|--------------------|
B|-15---15--17b18-----|-17---17--18b20-----|
G|--------------------|--------------------|
D|--------------------|--------------------|
A|--------------------|--------------------|
E|--------------------|--------------------|
|
e|--------------------|--------------------|
B|--------------------|--------------------|
G|--------------------|--------------------|
D|--------------------|--------------------|
A|--------------------|--------------------|
E|--------------------|--------------------|
|
e|-------0---1-----0--|-------0---1-----0--|
B|--------------------|--------------------|
G|--2-2---------------|--------------------|
D|--0-0---------------|--2-2---------------|
A|--------------------|--0-0---------------|
E|--------------------|--------------------|


       Bb FD     FBbF           CE  GFE
   | |  | | |    || |   |  |  | | | || |
   x x  o o o    oo o   x  x  / o o oo o

                                   ~~
e|--------------------|---------------------||
B|-18---18------------|---------------------||
G|----------18b19-----|-17-17h19------------||
D|--------------------|-----------17--------||
A|--------------------|---------------------||
E|--------------------|---------------------||
|
e|--------------------|---------------------||
B|--------------------|---------------------||
G|--------------------|---------------------||
D|--------------------|---------------------||
A|--------------------|---------------------||
E|--------------------|---------------------||
|
 |                                 ~~
e|--------------------|---------------------||
B|-------1---3-----1--|---------------------||
G|--------------------|---------------------||
D|--3-3---------------|---------------------||
A|--1-1---------------|--3--3---------------||
E|--------------------|--3--3--3--/7---(7)\-||


 [Outro/Guitar Duet]
(To Fade out.)

          D AF  AD  A          C AE  AC  A
   |    | | | | | | |   |    | | | | | | |
   x    x o o o o o o   x    x o o o o o o

e|--------------------|--------------------|
B|--------------------|--------------------|
G|------------12--14--|----------------12--|
D|-14b15--------------|-12b14------15------|
A|--------------------|--------------------|
E|--------------------|--------------------|
|
e|--------------------|--------------------|
B|--------------------|--------------------|
G|-------------9--10--|-----------------9--|
D|-10b12--------------|-10b11------12------|
A|--------------------|--------------------|
E|--------------------|--------------------|
|
e|---------0---1---0--|---------0---1---0--|
B|--------------------|--------------------|
G|--2----2------------|--------------------|
D|--0----0------------|--2----2------------|
A|--------------------|--0----0------------|
E|--------------------|--------------------|


          Bb FD  FBb F          CE  G  F  E
   |    |  | | | | | |   | |  | | |  |  |  |
   x    x  o o o o o o   x x  / o o  o  o  o

e|-----------------13--|------------------------|
B|-------------15------|----------15p13----13---|
G|---------15----------|-14-------------15------|
D|-14b15---------------|------15----------------|
A|---------------------|------------------------|
E|---------------------|------------------------|
|
e|-----------------10--|------------------------|
B|-------------11------|-13---10--11p10----10---|
G|---------10----------|----------------12------|
D|-10b12---------------|------------------------|
A|---------------------|------------------------|
E|---------------------|------------------------|
|
 |                                 ~~~
e|---------------------|------------------------|
B|----------1---3---1--|------------------------|
G|---------------------|------------------------|
D|--3----3-------------|------------------------|
A|--1----1-------------|--3-3-------------------|
E|---------------------|--3-3--3--/7-------(7)\-|


          D AF  AD  A          C AE  AC  A
   |    | | | | | | |   |    | | | | | | |
   x    x o o o o o o   x    x o o o o o o

e|--------------------|--------------------|
B|--------------------|--------------------|
G|------------12--14--|----------------12--|
D|-14b15--------------|-12b14------15------|
A|--------------------|--------------------|
E|--------------------|--------------------|
|
e|--------------------|--------------------|
B|--------------------|--------------------|
G|-------------9--10--|-----------------9--|
D|-10b12--------------|-10b11------12------|
A|--------------------|--------------------|
E|--------------------|--------------------|
|
e|---------0---1---0--|---------0---1---0--|
B|--------------------|--------------------|
G|--2----2------------|--------------------|
D|--0----0------------|--2----2------------|
A|--------------------|--0----0------------|
E|--------------------|--------------------|


          Bb FD  FBb F          C  E  G  F  E
   |    |  | | | | | |   | |  |  |  |  |  |  |
   x    x  o o o o o o   x x  /  o  o  o  o  o

                                           ~~
e|-----------------13--|--------------------------|
B|-------------15------|--------------------------|
G|---------15----------|-14---15p14p12-14p12------|
D|-14b15---------------|--------------------------|
A|---------------------|--------------------------|
E|---------------------|--------------------------|
|
 |                                         ~~
e|-----------------10--|---------------10---------|
B|-------------11------|-13---13----13------------|
G|---------10----------|-------------------9------|
D|-10b12---------------|--------------------------|
A|---------------------|--------------------------|
E|---------------------|--------------------------|
|
 |                                   ~~
e|---------------------|--------------------------|
B|----------1---3---1--|--------------------------|
G|---------------------|--------------------------|
D|--3----3-------------|--------------------------|
A|--1----1-------------|--3-3---------------------|
E|---------------------|--3-3--3----/7-------(7)\-|


          D AF  AD  A          C AE  AC  A
   |    | | | | | | |   |    | | | | | | |
   x    x o o o o o o   x    x o o o o o o

e|--------------------|--------------------|
B|--------------------|--------------------|
G|------------12--14--|----------------12--|
D|-14b15--------------|-12b14------15------|
A|--------------------|--------------------|
E|--------------------|--------------------|
|
e|--------------------|--------------------|
B|--------------------|--------------------|
G|-------------9--10--|-----------------9--|
D|-10b12--------------|-10b11------12------|
A|--------------------|--------------------|
E|--------------------|--------------------|
|
e|---------0---1---0--|---------0---1---0--|
B|--------------------|--------------------|
G|--2----2------------|--------------------|
D|--0----0------------|--2----2------------|
A|--------------------|--0----0------------|
E|--------------------|--------------------|


          Bb FD  FBb F          CE  G  F  E
   |    |  | | | | | |   | |  | | |  |  |  |
   x    x  o o o o o o   x x  / o o  o  o  o

e|-----------------13--|------------------------|
B|-------------15------|----------15p13----13---|
G|---------15----------|-14-------------15------|
D|-14b15---------------|------15----------------|
A|---------------------|------------------------|
E|---------------------|------------------------|
|
e|-----------------10--|------------------------|
B|-------------11------|-13---10--11p10----10---|
G|---------10----------|----------------12------|
D|-10b12---------------|------------------------|
A|---------------------|------------------------|
E|---------------------|------------------------|
|
 |                                 ~~~
e|---------------------|------------------------|
B|----------1---3---1--|------------------------|
G|---------------------|------------------------|
D|--3----3-------------|------------------------|
A|--1----1-------------|--3-3-------------------|
E|---------------------|--3-3--3--/7-------(7)\-|


          D AF  AD  A          C AE  AC  A
   |    | | | | | | |   |    | | | | | | |
   x    x o o o o o o   x    x o o o o o o

e|--------------------|--------------------|
B|--------------------|--------------------|
G|------------12--14--|----------------12--|
D|-14b15--------------|-12b14------15------|
A|--------------------|--------------------|
E|--------------------|--------------------|
|
e|--------------------|--------------------|
B|--------------------|--------------------|
G|-------------9--10--|-----------------9--|
D|-10b12--------------|-10b11------12------|
A|--------------------|--------------------|
E|--------------------|--------------------|
|
e|---------0---1---0--|---------0---1---0--|
B|--------------------|--------------------|
G|--2----2------------|--------------------|
D|--0----0------------|--2----2------------|
A|--------------------|--0----0------------|
E|--------------------|--------------------|


          Bb FD  FBb F          C  E  G  F  E
   |    |  | | | | | |   | |  |  |  |  |  |  |
   x    x  o o o o o o   x x  /  o  o  o  o  o

                                           ~~
e|-----------------13--|--------------------------|
B|-------------15------|--------------------------|
G|---------15----------|-14---15p14p12-14p12------|
D|-14b15---------------|--------------------------|
A|---------------------|--------------------------|
E|---------------------|--------------------------|
|
 |                                         ~~
e|-----------------10--|---------------10---------|
B|-------------11------|-13---13----13------------|
G|---------10----------|-------------------9------|
D|-10b12---------------|--------------------------|
A|---------------------|--------------------------|
E|---------------------|--------------------------|
|
 |                                   ~~
e|---------------------|--------------------------|
B|----------1---3---1--|--------------------------|
G|---------------------|--------------------------|
D|--3----3-------------|--------------------------|
A|--1----1-------------|--3-3---------------------|
E|---------------------|--3-3--3----/7-------(7)\-|


          D AF  AD  A          C AE  AC  A
   |    | | | | | | |   |    | | | | | | |
   x    x o o o o o o   x    x o o o o o o

e|--------------------|--------------------|
B|--------------------|--------------------|
G|------------12--14--|----------------12--|
D|-14b15--------------|-12b14------15------|
A|--------------------|--------------------|
E|--------------------|--------------------|
|
e|--------------------|--------------------|
B|--------------------|--------------------|
G|-------------9--10--|-----------------9--|
D|-10b12--------------|-10b11------12------|
A|--------------------|--------------------|
E|--------------------|--------------------|
|
e|---------0---1---0--|---------0---1---0--|
B|--------------------|--------------------|
G|--2----2------------|--------------------|
D|--0----0------------|--2----2------------|
A|--------------------|--0----0------------|
E|--------------------|--------------------|


          Bb FD  FBb F          CE  G  F  E
   |    |  | | | | | |   | |  | | |  |  |  |
   x    x  o o o o o o   x x  / o o  o  o  o

e|-----------------13--|------------------------|
B|-------------15------|----------15p13----13---|
G|---------15----------|-14-------------15------|
D|-14b15---------------|------15----------------|
A|---------------------|------------------------|
E|---------------------|------------------------|
|
e|-----------------10--|------------------------|
B|-------------11------|-13---10--11p10----10---|
G|---------10----------|----------------12------|
D|-10b12---------------|------------------------|
A|---------------------|------------------------|
E|---------------------|------------------------|
|
 |                                 ~~~
e|---------------------|------------------------|
B|----------1---3---1--|------------------------|
G|---------------------|------------------------|
D|--3----3-------------|------------------------|
A|--1----1-------------|--3-3-------------------|
E|---------------------|--3-3--3--/7-------(7)\-|


          D AF  AD  A          C AE  AC  A
   |    | | | | | | |   |    | | | | | | |
   x    x o o o o o o   x    x o o o o o o

e|--------------------|--------------------|
B|--------------------|--------------------|
G|------------12--14--|----------------12--|
D|-14b15--------------|-12b14------15------|
A|--------------------|--------------------|
E|--------------------|--------------------|
|
e|--------------------|--------------------|
B|--------------------|--------------------|
G|-------------9--10--|-----------------9--|
D|-10b12--------------|-10b11------12------|
A|--------------------|--------------------|
E|--------------------|--------------------|
|
e|---------0---1---0--|---------0---1---0--|
B|--------------------|--------------------|
G|--2----2------------|--------------------|
D|--0----0------------|--2----2------------|
A|--------------------|--0----0------------|
E|--------------------|--------------------|


          Bb FD  FBb F          C  E  G  F  E
   |    |  | | | | | |   | |  |  |  |  |  |  |
   x    x  o o o o o o   x x  /  o  o  o  o  o

                                           ~~
e|-----------------13--|--------------------------|
B|-------------15------|--------------------------|
G|---------15----------|-14---15p14p12-14p12------|
D|-14b15---------------|--------------------------|
A|---------------------|--------------------------|
E|---------------------|--------------------------|
|
 |                                         ~~
e|-----------------10--|---------------10---------|
B|-------------11------|-13---13----13------------|
G|---------10----------|-------------------9------|
D|-10b12---------------|--------------------------|
A|---------------------|--------------------------|
E|---------------------|--------------------------|
|
 |                                   ~~
e|---------------------|--------------------------|
B|----------1---3---1--|--------------------------|
G|---------------------|--------------------------|
D|--3----3-------------|--------------------------|
A|--1----1-------------|--3-3---------------------|
E|---------------------|--3-3--3----/7-------(7)\-|


          D AF  AD  A          C AE  AC  A
   |    | | | | | | |   |    | | | | | | |
   x    x o o o o o o   x    x o o o o o o

e|--------------------|--------------------|
B|--------------------|--------------------|
G|------------12--14--|----------------12--|
D|-14b15--------------|-12b14------15------|
A|--------------------|--------------------|
E|--------------------|--------------------|
|
e|--------------------|--------------------|
B|--------------------|--------------------|
G|-------------9--10--|-----------------9--|
D|-10b12--------------|-10b11------12------|
A|--------------------|--------------------|
E|--------------------|--------------------|
|
e|---------0---1---0--|---------0---1---0--|
B|--------------------|--------------------|
G|--2----2------------|--------------------|
D|--0----0------------|--2----2------------|
A|--------------------|--0----0------------|
E|--------------------|--------------------|


          Bb FD  FBb F          CE  G  F  E
   |    |  | | | | | |   | |  | | |  |  |  |
   x    x  o o o o o o   x x  / o o  o  o  o

e|-----------------13--|------------------------|
B|-------------15------|----------15p13----13---|
G|---------15----------|-14-------------15------|
D|-14b15---------------|------15----------------|
A|---------------------|------------------------|
E|---------------------|------------------------|
|
e|-----------------10--|------------------------|
B|-------------11------|-13---10--11p10----10---|
G|---------10----------|----------------12------|
D|-10b12---------------|------------------------|
A|---------------------|------------------------|
E|---------------------|------------------------|
|
 |                                 ~~~
e|---------------------|------------------------|
B|----------1---3---1--|------------------------|
G|---------------------|------------------------|
D|--3----3-------------|------------------------|
A|--1----1-------------|--3-3-------------------|
E|---------------------|--3-3--3--/7-------(7)\-|


          D AF  AD  A          C AE  AC  A
   |    | | | | | | |   |    | | | | | | |
   x    x o o o o o o   x    x o o o o o o

e|--------------------|--------------------|
B|--------------------|--------------------|
G|------------12--14--|----------------12--|
D|-14b15--------------|-12b14------15------|
A|--------------------|--------------------|
E|--------------------|--------------------|
|
e|--------------------|--------------------|
B|--------------------|--------------------|
G|-------------9--10--|-----------------9--|
D|-10b12--------------|-10b11------12------|
A|--------------------|--------------------|
E|--------------------|--------------------|
|
e|---------0---1---0--|---------0---1---0--|
B|--------------------|--------------------|
G|--2----2------------|--------------------|
D|--0----0------------|--2----2------------|
A|--------------------|--0----0------------|
E|--------------------|--------------------|


          Bb FD  FBb F          C  E  G  F  E
   |    |  | | | | | |   | |  |  |  |  |  |  |
   x    x  o o o o o o   x x  /  o  o  o  o  o

                                           ~~
e|-----------------13--|--------------------------|
B|-------------15------|--------------------------|
G|---------15----------|-14---15p14p12-14p12------|
D|-14b15---------------|--------------------------|
A|---------------------|--------------------------|
E|---------------------|--------------------------|
|
 |                                         ~~
e|-----------------10--|---------------10---------|
B|-------------11------|-13---13----13------------|
G|---------10----------|-------------------9------|
D|-10b12---------------|--------------------------|
A|---------------------|--------------------------|
E|---------------------|--------------------------|
|
 |                                   ~~
e|---------------------|--------------------------|
B|----------1---3---1--|--------------------------|
G|---------------------|--------------------------|
D|--3----3-------------|--------------------------|
A|--1----1-------------|--3-3---------------------|
E|---------------------|--3-3--3----/7-------(7)\-|


          D AF  AD  A          C AE  AC  A
   |    | | | | | | |   |    | | | | | | |
   x    x o o o o o o   x    x o o o o o o

e|--------------------|--------------------|
B|--------------------|--------------------|
G|------------12--14--|----------------12--|
D|-14b15--------------|-12b14------15------|
A|--------------------|--------------------|
E|--------------------|--------------------|
|
e|--------------------|--------------------|
B|--------------------|--------------------|
G|-------------9--10--|-----------------9--|
D|-10b12--------------|-10b11------12------|
A|--------------------|--------------------|
E|--------------------|--------------------|
|
e|---------0---1---0--|---------0---1---0--|
B|--------------------|--------------------|
G|--2----2------------|--------------------|
D|--0----0------------|--2----2------------|
A|--------------------|--0----0------------|
E|--------------------|--------------------|


          Bb FD  FBb F          CE  G  F  E
   |    |  | | | | | |   | |  | | |  |  |  |
   x    x  o o o o o o   x x  / o o  o  o  o

e|-----------------13--|------------------------|
B|-------------15------|----------15p13----13---|
G|---------15----------|-14-------------15------|
D|-14b15---------------|------15----------------|
A|---------------------|------------------------|
E|---------------------|------------------------|
|
e|-----------------10--|------------------------|
B|-------------11------|-13---10--11p10----10---|
G|---------10----------|----------------12------|
D|-10b12---------------|------------------------|
A|---------------------|------------------------|
E|---------------------|------------------------|
|
 |                                 ~~~
e|---------------------|------------------------|
B|----------1---3---1--|------------------------|
G|---------------------|------------------------|
D|--3----3-------------|------------------------|
A|--1----1-------------|--3-3-------------------|
E|---------------------|--3-3--3--/7-------(7)\-|


          D AF  AD  A          C AE  AC  A
   |    | | | | | | |   |    | | | | | | |
   x    x o o o o o o   x    x o o o o o o

e|--------------------|--------------------|
B|--------------------|--------------------|
G|------------12--14--|----------------12--|
D|-14b15--------------|-12b14------15------|
A|--------------------|--------------------|
E|--------------------|--------------------|
|
e|--------------------|--------------------|
B|--------------------|--------------------|
G|-------------9--10--|-----------------9--|
D|-10b12--------------|-10b11------12------|
A|--------------------|--------------------|
E|--------------------|--------------------|
|
e|---------0---1---0--|---------0---1---0--|
B|--------------------|--------------------|
G|--2----2------------|--------------------|
D|--0----0------------|--2----2------------|
A|--------------------|--0----0------------|
E|--------------------|--------------------|


          Bb FD  FBb F          C  E  G  F  E
   |    |  | | | | | |   | |  |  |  |  |  |  |
   x    x  o o o o o o   x x  /  o  o  o  o  o

                                           ~~
e|-----------------13--|--------------------------*|
B|-------------15------|--------------------------*|
G|---------15----------|-14---15p14p12-14p12------*|
D|-14b15---------------|--------------------------*|
A|---------------------|--------------------------*|
E|---------------------|--------------------------*|
|
 |                                         ~~
e|-----------------10--|---------------10---------*|
B|-------------11------|-13---13----13------------*|
G|---------10----------|-------------------9------*|
D|-10b12---------------|--------------------------*|
A|---------------------|--------------------------*|
E|---------------------|--------------------------*|
|
 |                                   ~~
e|---------------------|--------------------------*|
B|----------1---3---1--|--------------------------*|
G|---------------------|--------------------------*|
D|--3----3-------------|--------------------------*|
A|--1----1-------------|--3-3---------------------*|
E|---------------------|--3-3--3----/7-------(7)\-*|

F
1 0 3 2 1 1 

C
x 3 2 0 1 0 

Em/G
x x x 0 x 0 

Dm
x x 0 2 3 1 

Am
x 0 2 2 1 0 

Bb
x 1 3 3 3 1 

F(type 2)
1 3 3 2 1 1



************************************

| x    Dead note
| (n)  Ghost note
| h    Hammer-on
| p    Pull-off
| b    Bend
| pb   Pre-bend
| /    Slide up
| \    Slide down 

************************************
Suggest correction
comments
print report bad tab
39 comments total. Showing first comments.
+4 reply
CurtisJay 136 wrote on January 10 2008, 04:11 pm

You sir, are a hero. Thanks for this long awaited tab.

+3 reply
Guitar Skater 442 wrote on January 11 2008, 08:38 am

i can always count on you to make great a7x tabs

0 reply
Kreuger 791 wrote on January 13 2008, 10:19 pm

Bridge could be played that way but if you watch the dvd that comes with the album, Syn plays it all together (as in one
guitar along with Zacky)

guest
You may want to rate the tab now too:
select rating
Wanna post a correction for this tab? Suggest correction