Oops, an error
Loading. Please wait.

Dear God Tab

version 4
10,226 views 12 this week
no commentswrite comment
1 2 3 4 5
please rate
add to favorites
launch autoscroll
font size
0
reset
how to read this tab
guitar tuner
Autoscroll
slow
fast
+/-
esc
set tempo
stop
Help us to improve Ultimate-Guitar.com Take our survey!
×
Author
Difficulty
Tuning
intermediate
D A D G B E
                          INTRO
 
E|--1-1-----------------------------0-------------1-----0------0---|
B|--1-1----------------------------1--------------3-----1------1---|
G|--2-2---2h3p2------------------0----------------2-----2------2---|
D|--3-3--------------3-2-------2--------0-2-3-0---0-----2------2---|
A|---------------------------3--------------------------0------0---|
D|-----------------------------------------------------------------|



E|-------------------------------------------1----------0---0------|
B|-----------------1----------------1---------1---------1---1------|
G|---------3---------3----------2-----2--------2--------0---0------|
D|------3-----3--------------3------------------3-------2---2------|
A|--1---------------------------------------------------3---3------|
D|-----------------------------------------------------------------|


E|---------------------------------------|                                    
B|---------------------------------------|  
G|------------------------0-2-4-5--------|  
D|-------2h3p2----2--3-5-----------------| 
A|-------------5-------------------------| 
D|---------------------------------------|
 (Intro is played 4 times before the chorus)



 CHORUS                              
[Listen to song for the timing]                            


E|---1----0------1---0------0---1--0--------------------------------|
B|---1----1------2---1---3--1---1--1--------------------------------|
G|---2----0------3---0---3--0---2--0--------------------------------|   x2
D|---3----2------0---2---3--2---3--2--------------------------------|
A|--------3----------3------3------3--------------------------------|
D|------------------------------------------------------------------|

E|-------0---0--1--0--------------------------------|
B|---3---1---1--2--1--------------------------------|
G|---3---0---2--3--0--------------------------------|
D|---3---2---2--0--2--------------------------------|
A|-------3---0-----3--------------------------------|
D|--------------------------------------------------|



VERSE
(Last Power Chord and next staff need to be listened to for timing)

E|---------------------------------------------------------|
B|---------------------------------------------------------|
G|---7-7---xxxx---6-6---xxxx---3-3-- xxxx-------------5----|                     
D|---x-x---xxxx---x-x---xxxx---x-x---xxxx----3----5---5----|
A|---5-5---xxxx---4-4---xxxx---1-1---xxxx--- 3----5---3----|
D|-------------------------------------------3----5--------|



E|--1--------------------------1--1----0-----------------1-1----------------|
B|--1------------------5--xx---2--2----1--1-3------3-3---1-1----5---0--3--5-|
G|--2---2h3p2----------5--xx---3--3----2-------2---3-3---2-2----5-----------|
D|--3-----------3--2---5--xx---0--0----2-----------3-3---3-3----5-----------|
A|-------------------------------------0------------------------------------|
D|--------------------------------------------------------------------------|

SOLO

E|-----------------------------------------------------------------------|
B|----13b--13b--12b--12b---11-- 11---11b----10---------------------------|
G|--------------------------------------------10-------------------------|
D|----------------------------------------------10----8----7h8p7h8p7-----|
A|-------------------------------------------------------------------8---|
D|-----------------------------------------------------------------------|


E|----------------------------------------------------------------|
B|---------------------------11b----10---11--10-------------------|
G|---9b--9----10b--10-----------------------------12---10/7-------|
D|----------------------------------------------------------------|
A|----------------------------------------------------------------|
D|----------------------------------------------------------------|

E|---------------------------------------------------------------|
B|--8b---8b---6----6----8b--8b---6---6---8b---8b---6--8--8b------|
G|---------------7-----------------7-----------------------------|
D|---------------------------------------------------------------|
A|---------------------------------------------------------------|
D|---------------------------------------------------------------|





E|-----------------10---------------------|
B|------13b---13b-------13---10--13b------|
G|----------------------------------------|
D|----------------------------------------|     x2
A|----------------------------------------|
D|----------------------------------------|


                                                                

E|-----13---15b---15b---13---15--13--12---13b---13----15b-15/20--20--17--15-|
B|-13b-------------------------15-------------------------------------------|
G|--------------------------------------------------------------------------|
D|--------------------------------------------------------------------------|
A|--------------------------------------------------------------------------|
D|--------------------------------------------------------------------------|




E|-15--17---20-----15---17---20---15--17---22---15---17---22--15---17-22b--|
B|-------------------------------------------------------------------------|
G|-------------------------------------------------------------------------|
D|-------------------------------------------------------------------------|
A|-------------------------------------------------------------------------|
D|-------------------------------------------------------------------------|





E|--15b---13---15b---13---15-------------------------------------------|
B|-------------------------------------13h15---13-------13h15--13------|
G|------------------------------------------------14--------------14---|
D|---------------------------------------------------------------------|
A|---------------------------------------------------------------------|
D|---------------------------------------------------------------------|



E|-------------------------------------------------------------------------|
B|--13h15---13-----13---10/8h10----8/6h8--6-----6--------------------------|
G|--------14--------------------------------7-----7---5---12--12--12--12b--|
D|-------------------------------------------------------------------------|
A|-------------------------------------------------------------------------|
D|-------------------------------------------------------------------------|


E|----------------------------|
B|-------10-------------------|
G|---12b----12--10-12b--------|
D|----------------------------|   x3
A|----------------------------|
D|----------------------------|

F|---------10----10---13---12----12----15----13---13---17-------------------|
B|-13b-13b-13b---13b--16b--15b---15b---18b---16b--16b--20b-20--18--18--20---|
G|-----------------------------------------------------------------------17-|
D|--------------------------------------------------------------------------|
A|--------------------------------------------------------------------------|
D|--------------------------------------------------------------------------|


E|--10----10----13-----12--12----15----13--13----10---8-----8-----5-----|
B|--13b---13b---16b----15b-15b---18b---16b-16b---13b--11b---11b---8b----|
G|----------------------------------------------------------------------|
D|----------------------------------------------------------------------|
A|----------------------------------------------------------------------|
D|----------------------------------------------------------------------|


E|------------------------------------------------------------------|
B|-------------10-----------------------------11----15--10----------|
G|----10---12-------9---10---12---10-----------------------10-------|
D|------------------------------------------------------------------| x5
A|------------------------------------------------------------------|
D|------------------------------------------------------------------|
Suggest correction
Give kudos to tab author, rate the tab!
1 2 3 4 5
comments
print report bad tab
guest
You may want to rate the tab now too:
select rating
Please do not post tabs as comments. Select "correction" instead!