Oops, an error
Loading. Please wait.

Desecrate Through Reverance bass

version 2
version 2

Whole song

Interactive

446 views 1 this week
no commentswrite comment
1 2 3 4 5
1 last vote to show rating
add to favorites
×
Save as Personal and add changes to this tab that will be seen only by you. Learn more ›
×
You can save this tab as Personal to edit and correct it or add notes. All changes will be seen only by you. Learn more »
launch autoscroll
font size
0
reset
guitar tuner
edit
Autoscroll
slow
fast
+/-
esc
set tempo
stop
Intro
G|-------------------------------------------------------------------|-----------------|
D|o-----------------------------------------------------------------o|(x4)-------------|
A|o-----------------------------------------------------------------o|-----------------|
D|--0-----0-2---3-/-8-----7-6---7---3-------5-------2-----/-8---7----|-0---------------|
    1 2 3 4 1 2 3 4 1 2 3 4 1 2 3 4 1 2 3 4 1 2 3 4 1 2 3 4 1 2 3 4    1 2 3 4 1 2 3 4

0:42
G|-----------------------------------------------------------------------------------|
D|o---------------------------------------------------------------------------------o|
A|o---------------------------------------------------------------------------------o|
D|--0-0-0---------------------------0-0-0---0-0---0----------------------------------|
    1 + 2 + 3 + 4 + 1 + 2 + 3 + 4 + 1 + 2 + 3 + 4 + 1 + 2 + 3 + 4 + 1 + 2 + 3 + 4 +

0:55
G|-----------------------------------------------------------------|
D|-------------------------------------------------5-5-5-5---------|
A|-----5-----5-5---7-7-7-7-8-8-8-8-7-7-7-----7-7-----------8-8-8-8-|
D|-0-0-------------------------------------------------------------|
   1 + 2 + 3 + 4 + 1 + 2 + 3 + 4 + 1 + 2 + 3 + 4 + 1 + 2 + 3 + 4 +

G|-----------------------------------------------------------------|
D|-----------------------------------------------------------------|
A|-----------------------------------------------------------------|
D|-0-----0-0-0-3-----3---0-----0-0-0-3---------0---3---0---5---7---|
   1 e + a 2 e + a 3 e + a 4 e + a 1 e + a 2 e + a 3 e + a 4 e + a

G|-----------------------------------------------------------7-----|
D|-------------------------------------------------5-7-8-7---------|
A|-----5-----5-5---7-7-7-7-8-8-8-8-7-7-7-----7-7-----------8---8-7-|
D|-0-0-------------------------------------------------------------|
   1 + 2 + 3 + 4 + 1 + 2 + 3 + 4 + 1 + 2 + 3 + 4 + 1 + 2 + 3 + 4 +

G|-----------------------------------------------------------------|
D|-----------------------------------------------------------------|
A|-----------------------------------------------------------------|
D|-0-----0-0-0-3-----3---0-----0-0-0-5---------5---5---5---6---7---|
   1 e + a 2 e + a 3 e + a 4 e + a 1 e + a 2 e + a 3 e + a 4 e + a

G|-----------------------------------------------------------------|
D|-------------------------------------------------5-5-5-5---------|
A|-----5-----5-5---7-7-7-7-8-8-8-8-7-7-7-----7-7-----------8-8-8-8-|
D|-0-0-------------------------------------------------------------|
   1 + 2 + 3 + 4 + 1 + 2 + 3 + 4 + 1 + 2 + 3 + 4 + 1 + 2 + 3 + 4 +

G|-----------------------------------------------------------------|
D|-----------------------------------------------------------------|
A|-----------------------------------------------------------------|
D|-0-----0-0-0-3-----3---0-----0-0-0-3---------0---3---0---5---7---|
   1 e + a 2 e + a 3 e + a 4 e + a 1 e + a 2 e + a 3 e + a 4 e + a

G|-----------------------------------------------------------7-----|
D|-------------------------------------------------5-7-8-7---------|
A|-----5-----5-5---7-7-7-7-8-8-8-8-7-7-7-----7-7-----------8---8-7-|
D|-0-0-------------------------------------------------------------|
   1 + 2 + 3 + 4 + 1 + 2 + 3 + 4 + 1 + 2 + 3 + 4 + 1 + 2 + 3 + 4 +

G|-----------------------------------------------------------------|
D|-----------------------------------------------------------------|
A|-----------------------------------------------------------------|
D|-0-------------------------------0-------------------------------|
   1 + 2 + 3 + 4 + 1 + 2 + 3 + 4 + 1 + 2 + 3 + 4 + 1 + 2 + 3 + 4 +

G|-----------------------------------------------------------------|
D|-----------------------------------------------------------------|
A|-----------------------------------------------------------------|
D|-0---------------------------------------------------------------|
   1 + 2 + 3 + 4 + 1 + 2 + 3 + 4 + 1 + 2 + 3 + 4 + 1 + 2 + 3 + 4 +

1:32
G|-----------------------------------------|
D|-----------------------------------------|
A|-----------------------------------------|
D|-0-0-0---------------------------0-0---0-|
   1 + 2 + 3 + 4 + 1 + 2 + 3 + 4 + 1 + 2 + 

1:36 Verse
G|------------------------------------------------------------------|
D|o-----------------------------------------------------------------|
A|o-----------------------------------------------------------------|
D|--2---2---------------2---2-3-----2-2-2---2-2---------2-2-2-3-----|
    1 + 2 + 3 + 4 + 1 + 2 + 3 + 4 + 1 + 2 + 3 + 4 + 1 + 2 + 3 + 4 +

G|------------------------------------------------------------------|
D|-----------------------------------------------------------------o|
A|-----------------------------------------------------------------o|
D|-0---0---0-0---0---0-0-0---0-0-0-0-0-0---0-0---0---0-0-0---0-0-0--|
   1 + 2 + 3 + 4 + 1 + 2 + 3 + 4 + 1 + 2 + 3 + 4 + 1 + 2 + 3 + 4 +

1:56
G|-----------------------------------------------------------------|
D|-----------------------------------------------------------------|
A|-----------------------------------------------------------------|
D|-2---2---------------2---2-3-----2-2-2---------------2-2-2-3-----|
   1 + 2 + 3 + 4 + 1 + 2 + 3 + 4 + 1 + 2 + 3 + 4 + 1 + 2 + 3 + 4 +

G|-----------------------------------------------------------------|
D|-----------------------------------------------------------------|
A|-----------------------------------------------------------------|
D|-0---0---0-0---0---0-0-0---0-0-0-0-0-0---0-0---0---0-0-0---0-0-0-|
   1 + 2 + 3 + 4 + 1 + 2 + 3 + 4 + 1 + 2 + 3 + 4 + 1 + 2 + 3 + 4 +

G|-----------------------------------------------------------------|
D|-----------------------------------------------------------------|
A|-----------------------------------------------------------------|
D|-2---2---------------2---2-3-----2-2-2---2-2---------2-2-2-3-3-0-|
   1 + 2 + 3 + 4 + 1 + 2 + 3 + 4 + 1 + 2 + 3 + 4 + 1 + 2 + 3 + 4 +

2:11 Pre Chorus
G|-----------------------------------------------------------------|
D|-----------------------------------------------------------------|
A|-----------------------------------------------------------------|
D|-----0-0-0-0-0-0-0-0-0---0---0-------0-0-0-0-0-0-0-0-0---0---0---|
   1 e + a 2 e + a 3 e + a 4 e + a 1 e + a 2 e + a 3 e + a 4 e + a

G|-----------------------------------------------------------------|
D|-----------------------------------------------------------------|
A|-----------------------------------------------------------------|
D|-----0-0-0-0-0-0-0-0-0---0---0-------0---3---0---5---7---7---0---|
   1 e + a 2 e + a 3 e + a 4 e + a 1 e + a 2 e + a 3 e + a 4 e + a

G|-----------------------------------------------------------------|
D|-----------------------------------------------------------------|
A|-----------------------------------------------------------------|
D|-----0-0-0-0-0-0-0-0-0---0---0-------0-0-0-0-0-0-0-0-0---0---0---|
   1 e + a 2 e + a 3 e + a 4 e + a 1 e + a 2 e + a 3 e + a 4 e + a

G|-----------------------------------------------------------------|
D|-----------------------------------------------------------------|
A|-----------------------------------------------------------------|
D|-----0-0-0-0-0-0-0-0-0---0---0-------8---7---5-------7---8---0---|
   1 e + a 2 e + a 3 e + a 4 e + a 1 e + a 2 e + a 3 e + a 4 e + a

2:21 Chorus
G|-----------------------------------------------------------------|
D|-------------------------------------------------5-5-8-5---------|
A|---------------------------------------------------------8-8-8-8-|
D|-3---3---3-3-3-3-2-2-2---2-3-5-0---0-0---0-0-0-0-----------------|
   1 + 2 + 3 + 4 + 1 + 2 + 3 + 4 + 1 + 2 + 3 + 4 + 1 + 2 + 3 + 4 +

G|---------------------------------|
D|---------------------------------|
A|-3-3-3-3-3-3-3-3-7-7-3-7---8-7---|
D|-------------------------------0-|
   1 + 2 + 3 + 4 + 1 + 2 + 3 + 4 +

G|-------------------------------------------------------------------|
D|o-----------------------------------------------------------------o|
A|o-----------------------------------------------------------------o|
D|------0-0-0-0-0-0-0-0-0---0---0-------0-0-0-0-0-0-0-0-0---0---0----|
    1 e + a 2 e + a 3 e + a 4 e + a 1 e + a 2 e + a 3 e + a 4 e + a

2:34
G|-----------------------------------------------------------------|
D|-------------------------------------------------5-5-5-5---------|
A|---------------------------------------------------------8-8-8---|
D|-3---3---3-3-3-3-2-2-2---2---2-0---0-0---0-0-0-0-----------------|
   1 + 2 + 3 + 4 + 1 + 2 + 3 + 4 + 1 + 2 + 3 + 4 + 1 + 2 + 3 + 4 +

G|---------------------------------|
D|---------------------------5-----|
A|-3-3-3-3-3-3-3-3-7-7-3-7---------|
D|-------------------------------0-|
   1 + 2 + 3 + 4 + 1 + 2 + 3 + 4 +

G|-----------------------------------------------------------------|
D|-----------------------------------------------------------------|
A|-----------------------------------------------------------------|
D|-----0-0-0-0-0-0-0-0-0---0---0-------0-0-0-0-0-0-0-0-0---0---0---|
   1 e + a 2 e + a 3 e + a 4 e + a 1 e + a 2 e + a 3 e + a 4 e + a

G|-------------------------------------------------|
D|-------------------------------------------------|
A|-------------------------------------------------|
D|-----0-0-0-0-0-0-0-0-0---0---0-------0---0-------|
   1 e + a 2 e + a 3 e + a 4 e + a 1 e + a 2 e + a

2:46 Verse
G|------------------------------------------------------------------|
D|o-----------------------------------------------------------------|
A|o-----------------------------------------------------------------|
D|--2---2---------------2---2-3-----2-2-2---2-2---------2-2-2-3-----|
    1 + 2 + 3 + 4 + 1 + 2 + 3 + 4 + 1 + 2 + 3 + 4 + 1 + 2 + 3 + 4 +

G|------------------------------------------------------------------|
D|-----------------------------------------------------------------o|
A|-----------------------------------------------------------------o|
D|-0---0---0-0---0---0-0-0---0-0-0-0-0-0---0-0---0---0-0-0---0-0-0--|
   1 + 2 + 3 + 4 + 1 + 2 + 3 + 4 + 1 + 2 + 3 + 4 + 1 + 2 + 3 + 4 +

3:06
G|-----------------------------------------------------------------|
D|-----------------------------------------------------------------|
A|-----------------------------------------------------------------|
D|-2-2-2---------------2-2-2-3-----2-2-2---------------2-2-2-3-----|
   1 + 2 + 3 + 4 + 1 + 2 + 3 + 4 + 1 + 2 + 3 + 4 + 1 + 2 + 3 + 4 +

G|-----------------------------------------------------------------|
D|-----------------------------------------------------------------|
A|-----------------------------------------------------------------|
D|-0---0---0-0---0---0-0-0---0-0-0-0-0-0---0-0---0---0-0-0---0-0-0-|
   1 + 2 + 3 + 4 + 1 + 2 + 3 + 4 + 1 + 2 + 3 + 4 + 1 + 2 + 3 + 4 +

G|-----------------------------------------------------------------|
D|-----------------------------------------------------------------|
A|-----------------------------------------------------------------|
D|-2---2---------------2-2-2-3-----2-2-2---2-2---------2-2-2-3-3-0-|
   1 + 2 + 3 + 4 + 1 + 2 + 3 + 4 + 1 + 2 + 3 + 4 + 1 + 2 + 3 + 4 +

3:22 Pre Chorus
G|-----------------------------------------------------------------|
D|-----------------------------------------------------------------|
A|-----------------------------------------------------------------|
D|-----0-0-0-0-0-0-0-0-0---0---0-------0-0-0-0-0-0-0-0-0---0---0---|
   1 e + a 2 e + a 3 e + a 4 e + a 1 e + a 2 e + a 3 e + a 4 e + a

G|-----------------------------------------------------------------|
D|-----------------------------------------------------------------|
A|-----------------------------------------------------------------|
D|-----0-0-0-0-0-0-0-0-0---0---0-------0---3---0---5---7---7---0---|
   1 e + a 2 e + a 3 e + a 4 e + a 1 e + a 2 e + a 3 e + a 4 e + a

G|-----------------------------------------------------------------|
D|-----------------------------------------------------------------|
A|-----------------------------------------------------------------|
D|-----0-0-0-0-0-0-0-0-0---0---0-------0-0-0-0-0-0-0-0-0---0---0---|
   1 e + a 2 e + a 3 e + a 4 e + a 1 e + a 2 e + a 3 e + a 4 e + a

G|-----------------------------------------------------------------|
D|-----------------------------------------------------------------|
A|-----------------------------------------------------------------|
D|-----0-0-0-0-0-0-0-0-0---0---0-------8---7---5-------7---8---0---|
   1 e + a 2 e + a 3 e + a 4 e + a 1 e + a 2 e + a 3 e + a 4 e + a

3:32 Chorus
G|-----------------------------------------------------------------|
D|-------------------------------------------------5-5-5-5---------|
A|---------------------------------------------------------8-8-8-8-|
D|-3---3---3-3-3-3-2-2-2---2-3-5-0---0-0---0-0-0-0-----------------|
   1 + 2 + 3 + 4 + 1 + 2 + 3 + 4 + 1 + 2 + 3 + 4 + 1 + 2 + 3 + 4 +

G|---------------------------------|
D|---------------------------------|
A|-3-3-3-3-3-3-3-3-7-7-7-8---8-7---|
D|-------------------------------0-|
   1 + 2 + 3 + 4 + 1 + 2 + 3 + 4 +

G|-------------------------------------------------------------------|
D|o-----------------------------------------------------------------o|
A|o-----------------------------------------------------------------o|
D|------0-0-0-0-0-0-0-0-0---0---0-------0-0-0-0-0-0-0-0-0---0---0----|
    1 e + a 2 e + a 3 e + a 4 e + a 1 e + a 2 e + a 3 e + a 4 e + a

3:45
G|-----------------------------------------------------------------|
D|-------------------------------------------------5-5-5-5---------|
A|---------------------------------------------------------8-8-8-8-|
D|-3---3---3-3-3-3-2-2-2---2---2-0---0-0---0-0-0-0-----------------|
   1 + 2 + 3 + 4 + 1 + 2 + 3 + 4 + 1 + 2 + 3 + 4 + 1 + 2 + 3 + 4 +

G|---------------------------------|
D|---------------------------5-----|
A|-3-3-3-3-3-3-3-3-7-7-3-7---------|
D|-------------------------------0-|
   1 + 2 + 3 + 4 + 1 + 2 + 3 + 4 +

G|-----------------------------------------------------------------|
D|-----------------------------------------------------------------|
A|-----------------------------------------------------------------|
D|-----0-0-0-0-0-0-0-0-0---0---0-------0-0-0-0-0-0-0-0-0---0---0---|
   1 e + a 2 e + a 3 e + a 4 e + a 1 e + a 2 e + a 3 e + a 4 e + a

G|-----------------------------------------------------------------|
D|-----------------------------------------------------------------|
A|-----------------------------------------------------------------|
D|-----0-0-0-0-0-0-0-0-0---0---0-------0-0-0-0-0-0-0-0-0-------0---|
   1 e + a 2 e + a 3 e + a 4 e + a 1 e + a 2 e + a 3 e + a 4 e + a

3:57 Solo
G|-----------------------------------------------------------------|
D|-------------------------------------------------5-5-5-5---------|
A|---------------------------------------------------------8-8-8-8-|
D|-3-3-3-3-3-3-3---2-2-2-2-3-5---0---0-0---0-0-0-0-----------------|
   1 + 2 + 3 + 4 + 1 + 2 + 3 + 4 + 1 + 2 + 3 + 4 + 1 + 2 + 3 + 4 +

G|---------------------------------|
D|---------------------------5-----|
A|-3-3-3-3-3-3-3-3-7-7-3-7---------|
D|-------------------------------0-|
   1 + 2 + 3 + 4 + 1 + 2 + 3 + 4 +

G|-----------------------------------------------------------------|
D|-----------------------------------------------------------------|
A|---------------------------------1-1-1-1-1-1-1---3-3-3-3-3-3-3-3-|
D|---0-0---0-0-0---0-0-0-0---0-0-0---------------------------------|
   1 + 2 + 3 + 4 + 1 + 2 + 3 + 4 + 1 + 2 + 3 + 4 + 1 + 2 + 3 + 4 +

4:10
G|-----------------------------------------------------------------|
D|-------------------------------------------------5-5-5-5---------|
A|---------------------------------------------------------8-8-8-8-|
D|-3-3-3-3---3-3-2---2-2-2-3-5---0---0-0---0-0-0-0-----------------|
   1 + 2 + 3 + 4 + 1 + 2 + 3 + 4 + 1 + 2 + 3 + 4 + 1 + 2 + 3 + 4 +

G|---------------------------------|
D|---------------------------5-----|
A|-3-3-3-3-3-3-3-3-7-7-3-7---------|
D|-------------------------------0-|
   1 + 2 + 3 + 4 + 1 + 2 + 3 + 4 +

G|-----------------------------------------------------------------|
D|-----------------------------------------------------------------|
A|---------------------------------1-1-1-1-1-1-1-1-3-3-3-3-3-3-3-3-|
D|---0-0---0-0-0---0-0-0-0---0-0-----------------------------------|
   1 + 2 + 3 + 4 + 1 + 2 + 3 + 4 + 1 + 2 + 3 + 4 + 1 + 2 + 3 + 4 +

4:23 Bridge
G|-------------------------------------------------------------------|
D|o-----------------5---------------------------5-------------------o|
A|o-----8---7-----------8---7---8-------8---7-------8---7---8---3---o|x4
D|--0-0---------0-0-----------------0-0------------------------------|
    1 + 2 + 3 + 4 + 1 + 2 + 3 + 4 + 1 + 2 + 3 + 4 + 1 + 2 + 3 + 4 +

Outro 4:43
G|-----------------------------------------------------------------|
D|-----------------------------------------------------------------|
A|-5---------------3-----------------------------------------------|
D|---------------------------------1-------------------------------|
   1 + 2 + 3 + 4 + 1 + 2 + 3 + 4 + 1 + 2 + 3 + 4 + 1 + 2 + 3 + 4 +

G|---------------------------------|
D|---------------------------------|
A|-----------------0-0-0-0-0-0-0-0-|
D|-3---3-3-3-3-3-3-----------------|
   1 + 2 + 3 + 4 + 1 + 2 + 3 + 4 + 

4:51
G|------------------------------------------------------------------|
D|o-----------------------------------------------------------------|
A|o-5-5-5-5-5-5-5-5-----------------3-3-3-3-3-3-3-3-----------------|
D|------------------2-2-2-2-2-2-2-2-----------------0-0-0-0-0-0-0-0-|
    1 + 2 + 3 + 4 + 1 + 2 + 3 + 4 + 1 + 2 + 3 + 4 + 1 + 2 + 3 + 4 +

G|------------------------------------------------------------------|
D|-----------------------------------------------------------------o|
A|-5-5-5-5-5-5-5-5-3-3-3-3-3-3-3-3-----------------4-4-4-4-4-4-4-4-o|
D|---------------------------------3-3-3-3-3-3-3-3------------------|
   1 + 2 + 3 + 4 + 1 + 2 + 3 + 4 + 1 + 2 + 3 + 4 + 1 + 2 + 3 + 4 +

5:12
G|-----------------------------------------------------------------|
D|-----------------------------------------------------------------|
A|---------------------------------3-------------3-3-3-3-3-3-3-3-3-|
D|-0---------------------------------------------------------------|
   1 + 2 + 3 + 4 + 1 + 2 + 3 + 4 + 1 + 2 + 3 + 4 + 1 + 2 + 3 + 4 +

G|-----------------------------------------------------------------|
D|-----------------------------------------------------------------|
A|-1-1-1-1-1-1-1-1-1-1-1-1-1-1-1-1-----------------4-4-4-4-4-4-4-4-|
D|---------------------------------3-3-3-3-3-3-3-3-----------------|
   1 + 2 + 3 + 4 + 1 + 2 + 3 + 4 + 1 + 2 + 3 + 4 + 1 + 2 + 3 + 4 +

G|-----------------------------------------------------------------|
D|-----------------------------------------------------------------|
A|---------------------------------3-3-3-3-3-3-3-3-3-3-3-3-3-3-3-3-|
D|-0-0-0-0-0-0-0-0-0-0-0-0-0-0-0-0---------------------------------|
   1 + 2 + 3 + 4 + 1 + 2 + 3 + 4 + 1 + 2 + 3 + 4 + 1 + 2 + 3 + 4 +

G|-----------------------------------------------------------------|
D|-----------------------------------------------------------------|
A|-1-1-1-1-1-1-1-1-1-1-1-1-1-1-1-1-----------------4-4-4-4-4-4-4---|
D|---------------------------------3-3-3-3-3-3-3-3---------------0-|
   1 + 2 + 3 + 4 + 1 + 2 + 3 + 4 + 1 + 2 + 3 + 4 + 1 + 2 + 3 + 4 +

G|-----------------------------------------------------------------|
D|-----------------------------------------------------------------|
A|-----------------------------------------------------------------|
D|-----0-0-0-0-0-0-0-0-0---0---0-------0-0-0-0-0-0-0-0-0---0---0---|
   1 e + a 2 e + a 3 e + a 4 e + a 1 e + a 2 e + a 3 e + a 4 e + a

G|-------------------------------------------------|
D|-------------------------------------------------|
A|-------------------------------------------------|
D|-----0-0-0-0-0-0-0-0-0---0---0-------0---0-------|
   1 e + a 2 e + a 3 e + a 4 e + a 1 e + a 2 e + a
Tabbed by Dave Vucko

            
            
Suggest correction
Creating personal tab
Creating personal tab
You can edit any tab online and save it as your Personal.

You can edit, replace or remove any tab part or add personal notes – all changes will be seen only by you.

Personal tabs can be accessed anytime from any device, even offline.
Learn more »
Give kudos to tab author, rate the tab!
1 2 3 4 5
comments
print report bad tab
guest
You may want to rate the tab now too:
select rating
Wanna post a correction for this tab? Suggest correction