Oops, an error
Loading. Please wait.

Doing Time bass

version 2
version 2

Whole song

Interactive

2,022 views 6 this week
1 commentread comment
1 2 3 4 5
x 8
add to favorites
×
Save as Personal and add changes to this tab that will be seen only by you. Learn more ›
×
You can save this tab as Personal to edit and correct it or add notes. All changes will be seen only by you. Learn more »
launch autoscroll
font size
0
reset
guitar tuner
backing track
0:00
0:00
edit
Autoscroll
slow
fast
+/-
esc
set tempo
stop
-----------------------------------------------------------------------------
                             Doing Time - Avenged Sevenfold
-----------------------------------------------------------------------------
Tabbed by: Andu Needle
E-mail: sulfur_in_my_lungs@yahoo.com

Intro:

G|-------------------------------------------------------------------|
D|-------------------------------------------------------------------|
A|---------0~--------------------------------------------------------|
D|-2~--0~------2~----------------------------------------------------|

G|-------------------------------------------------------------------|
D|-------------------------------------------------------------------|
A|---------------------------00000000(x2)-222-111-000-----75---------|
D|-22222222(x2)-00000000(x2)--------------------------555------------|

Intro 2(main riff):

G|--------------------------------------------------------------------|
D|--------------------------------------------------------------------|
A|--------------------------------------------------------------------|
D|-2-52520--2-52520--2-52520--8-75750---------------------------------|(x2)

After the last 0 you go straight into the first 2 of the verse.

Verse:

G|--------------------------------------------------------------------|
D|--------------------------------------------------------------------|
A|--------------------------------------------------------------------|
D|-2-2222222222102-2222222222102-2222222222102-2222222222104----------|

The last 4 from the verse it's the first one from the pre chorus.

Pre chorus:

G|---------------------------------------------------------------------|
D|---------------------------------------------------------------------|
A|---------------------------222-000-222-555-22-0----------------------|
D|-44444444(x2)-55555555(x2)-------------------------------------------|

Chorus:

G|---------------------------------------------------------------------|
D|---------------------------------------------------------------------|
A|----------00000000-2-------2-----------------------------------------|
D|-55555555------------3-020---3-020-----------------------------------|(x2)

Verse 2 is the same as the first one!
Pre chorus 2 is the same as the first one!
Chorus 2 is the same as the first one!

Bridge:

G|----------------------------------------------------------------------|
D|----------------------------------------------------------------------|
A|-------------------22222222-00000000-------------------22222222(x4)---|
D|-55555555-44444444-------------------55555555-44444444----------------|

During the solo you play the main riff for 4 times.
After the solo you go straight into that interlude part which is basically the intro:

G|----------------------------------------------------------------------|
D|----------------------------------------------------------------------|
A|---------0~-222-111-000-----75----------------------------------------|
D|-2~--0~-----------------555-------------------------------------------|

Verse 3 is the same like the others!
Pre chorus 3 is the same like the others!
Chorus 3 is the same as the others, but the 3rd time, which is also the ending part, it 
goes like this:

G|----------------------------------------------------------------------|
D|----------------------------------------------------------------------|
A|----------00000000-222-111-000-------------------2--------------------|
D|-55555555----------------------444-33-22-000-222----------------------|

            
            
Suggest correction
Creating personal tab
Creating personal tab
You can edit any tab online and save it as your Personal.

You can edit, replace or remove any tab part or add personal notes – all changes will be seen only by you.

Personal tabs can be accessed anytime from any device, even offline.
Learn more »
comments
print report bad tab
1 comment total.
0 reply
tiagosoaresreis 10 Apr 20, 2016 07:11 PM

please,can you make a tab for my sacrifice - creed?the way you made the tab is easily understood

guest
You may want to rate the tab now too:
select rating
Wanna post a correction for this tab? Suggest correction