Oops, an error
Loading. Please wait.

Dose bass

52 views 12 this week
1 commentread comment
1 2 3 4 5
1 last vote to show rating
add to favorites
×
Save as Personal and add changes to this tab that will be seen only by you. Learn more ›
×
You can save this tab as Personal to edit and correct it or add notes. All changes will be seen only by you. Learn more »
launch autoscroll
font size
0
reset
guitar tuner
edit
Autoscroll
slow
fast
+/-
esc
set tempo
stop
About this tab version
Tabbed by ear, tuning is in Drop D. Enjoy. Was this info helpful? Yes No
[Intro]
G|----------------|----------------|
D|----------------|----------------|  (Repeat x4)
A|-5---5---4---1--|-5---5---4---1--|
D|----------------|----------------|
           (24 Open notes)                        
G|-----------------|----------------|----------------|----------------|
D|-----------------|----------------|----------------|----------------|  (Repeat x4)
A|-----------------|----------------|----------------|----------------|
D|-0-0-0-0-0-0-0-0-|0-0-0-0-0-0-0-0-|0-0-0-0-0-0-0-0-|8-7-6-7-6-5-4-2-|

[Verse]
G|-----------------|-----------------------------------------|
D|--5-------/7-----|-----------------------------------------|
A|-----------------|----1-0----------------------------------|
D|-----------------|---------3-3-3-3-2-2-2-2-8-8-8-8-7-7-7-7-|

G|-------------------|----------------------------------------|
D|--5---5-7-6-17-14--|----------------------------------------|
A|-------------------|--1-0-----------------------------------|
D|-------------------|--------3-3-3-3-2-2-2-2-8-8-8-8-7-7-7-7-|
(What's the matter dear...)

[Chorus]
G|------------------|-------------------|------------------|
D|------------------|-------------------|------------------|
A|----5-4--4-1--3-5-|-----5-4--4-1--3-5-|----5-4--4-1--3-5-|
D|-0----------------|--0----------------|-0----------------|
(Lost in a world...)

[Verse]
G|----------12----------|----------------------------------------|
D|-5-----12----12-8-7---|----------------------------------------|
A|----------------------|---1-0----------------------------------|
D|----------------------|--------3-3-3-3-2-2-2-2-8-8-8-8-7-7-7-7-|
(Here in 54'...)

G|-------------------|---------------------------------------|
D|-------------------|---------------------------------------|
A|--5---5-7-8-7-5-2--|--1-0----------------------------------|
D|-------------------|-------3-3-3-3-2-2-2-2-8-8-8-8-7-7-7-7-|

[Chorus]
G|------------------|-------------------|------------------|-------------------|
D|------------------|-------------------|------------------|-------------------|
A|----5-4--4-1--3-5-|-----5-4--4-1--3-5-|----5-4--4-1--3-5-|-----5-4--4-1--3-5-|
D|-0----------------|--0----------------|-0----------------|-0-----------------|
(Lost in the world...)

[Verse 2]
           (24 Open notes)                        
G|-----------------|----------------|----------------|----------------|
D|-----------------|----------------|----------------|----------------|  (Repeat x4)
A|-----------------|----------------|----------------|----------------|
D|-0-0-0-0-0-0-0-0-|0-0-0-0-0-0-0-0-|0-0-0-0-0-0-0-0-|8-7-6-7-6-5-4-2-|


(Wait for the band to join in again)
G|--------------------------|-------------------------|
D|--------------------------|-------------------------|
A|-----5-5-5---3-3-3---/5-5-|----5-5-5---3-3-3---/5-5-|  (Repeat x2)
D|-0------------------------|0------------------------|

G|----------------------------------|
D|----------------------------------|
A|------0---1---3---5---7---8---10--|
D|-5--------------------------------|

[Verse 3]
  (This part is definitely has errors) 
G|-----------------|----------------|----------------|----------------|
D|-----------------|----------------|----------------|----------------|
A|-----------------|----------------|----------------|----------------| (Repeat x2)
D|-7-7-7-7-6-6-6-6-|8-8-8-8-7-7-7-7-|7-7-7-7-6-6-6-6-|0-0-0-0-7-7-7-7-|
   (12 7's)
G|-----------------|----------------------|
D|-----------------|----------------------|
A|-----------------|--------/12-12-12-12--|
D|-7-7-7-7-7-7-7-7-|7-7-7-7---------------|

[Final Chorus]
G|------------------|-------------------|------------------|-------------------|
D|------------------|-------------------|------------------|-------------------|
A|----5-4--4-1--3-5-|-----5-4--4-1--3-5-|----5-4--4-1--3-5-|-----5-4--4-1--3-5-|
D|-0----------------|--0----------------|-0----------------|-0-----------------|
(Lost in the world...)

[Outro]
           (24 Open notes)                        
G|-----------------|----------------|----------------|----------------|
D|-----------------|----------------|----------------|----------------|  (Repeat x2)
A|-----------------|----------------|----------------|----------------|
D|-0-0-0-0-0-0-0-0-|0-0-0-0-0-0-0-0-|0-0-0-0-0-0-0-0-|8-7-6-7-6-5-4-2-|

G|---------------------------|
D|---------------------------|
A|---------------------------|
D|-0------8-7-6-7-6-5-4-2-0--|



************************************

| /   Slide up

************************************
Suggest correction
Creating personal tab
Creating personal tab
You can edit any tab online and save it as your Personal.

You can edit, replace or remove any tab part or add personal notes – all changes will be seen only by you.

Personal tabs can be accessed anytime from any device, even offline.
Learn more »
Give kudos to tab author, rate the tab!
1 2 3 4 5
comments
print report bad tab
1 comment total.
0 reply
njtaylor1942 33 a day ago

Hey. Thanks a ton for tabbing this out, but I think there's a few mistakes. I don't think there's 24 open notes, I'm pretty sure it shifts 8-12 notes in. I also think some of the fills in the verse and may be a note or two in the chorus are off (I'm not sure on that one).

Just as a tip, you can also use Audacity to make the bass pitches louder, making it easier to hear. Tutorials are easily found online. But like I said, I'm really happy you tabbed this out, and I agree with most of it.

guest
You may want to rate the tab now too:
select rating
Wanna post a correction for this tab? Suggest correction