Oops, an error
Loading. Please wait.

Eternal Rest Tab

version 1
version 1

Whole song

Interactive

55,908 views 30 this week
28 commentsread comments
1 2 3 4 5
x 35
add to favorites
launch autoscroll
font size
0
reset
how to read this tab
guitar tuner
×
Best way to learn
"Eternal Rest"
Autoscroll
slow
fast
+/-
esc
set tempo
stop
Author
[Part 1] 
(0:00)
e|----------------------------------------------------------|
B|-----:::-----------------------:::------------------------|     
G|-5---555-5-5-----------------5-555-5---::::::::::::::::---| (x2)
D|-5---555-5-5---1-3---3-1-3---5-555-5---1111333344443333---|
A|-3---333-3-3---1-3---3-1-3---3-333-3---1111333344443333---|    
E|---------------1-3---3-1-3-------------1111333344443333---|      
                                                                 (x2)
e|----------------------------------------------------------|    
B|-----:::-----------------------:::------------------------|      
G|-7---777-7-7-----------------7-777-7---::::::::::::::::---| 
D|-7---777-7-7---3-5---5-3-5---7-777-7---3333555566665555---| (2x)
A|-5---555-5-5---3-5---5-3-5---5-555-5---3333555566665555---|      
E|---------------3-5---5-3-5-------------3333555566665555---|

[Part 2] 
(0:40)
(Guitar 1)
e|------|
B|------|
G|------|
D|-0~---|
A|-0~---|
E|-0~---|

e|----------------------------------------|
B|----------------------------------------|
G|----.---.-------------.-----------------| 
D|-/3-0---0---0-/3-0-/3-0---0-/3-0-/6-\---|  (4x)
A|-/3-0---0---0-/3-0-/3-0---0-/3-0-/6-\---|
E|-/3-0---0---0-/3-0-/3-0---0-/3-0-/6-\---|

(Guitar 2)
e|------|
B|------|
G|------|
D|-0~---|
A|-0~---|
E|-0~---|

e|---------------------------------------------------------|
B|---------------------------------------------------------|
G|-:-:-:-:-:-:-:-:-:-:-:-:-:-:-:-:-:-:-:-:-:-:-:-:-:-:-:---|
D|-0-0-0-0-0-0-0-0-0-0-0-0-0-0-0-0-0-0-0-0-0-0-0-0-0-0-0---| 
A|-0-0-0-0-0-0-0-0-0-0-0-0-0-0-0-0-0-0-0-0-0-0-0-0-0-0-0---|
E|-0-0-0-0-0-0-0-0-0-0-0-0-0-0-0-0-0-0-0-0-0-0-0-0-0-0-0---|

(Both Guitars)
e|----------------------------------------|
B|----------------------------------------|
G|----.---.-------------.-----------------| 
D|-/3-0---0---0-/3-0-/3-0---0-/3-0-/6-\---|  (4x)
A|-/3-0---0---0-/3-0-/3-0---0-/3-0-/6-\---|
E|-/3-0---0---0-/3-0-/3-0---0-/3-0-/6-\---|

[Part 3] 
(1:15)
e|------------------------------------------|
B|------------------------------------------|
G|-:-:-:-.-------:-:-.---:-:-.---.----------| 
D|-0-0-0-0-------0-0-0---0-0-5---3---3-h5---|  (4x)
A|-0-0-0-0-------0-0-0---0-0-5---3---3-h5---|
E|-0-0-0-0-------0-0-0---0-0-5---3---3-h5---|

[Part 4] 
(1:32)
(Guitar 10
e|----------------------------------------------------------------------|
B|----------------------------------------------------------------------|
G|-----7-6~-----6-7-/9~---7-9-10-9~-------7-6~-----6-7-/9~---6-7-9------|
D|---7----------------------------------7--------------------------7~---|
A|-5----------------------------------5---------------------------------|
E|----------------------------------------------------------------------|

(Guitar 2)
e|----------------------------------------------------------------------|
B|-----6-5~-----5-6-/8~---6-8-10-8~-------6-5~-----5-6-/8~---5-6-8------|
G|-----------------------------------------------------------------6~---|
D|---7----------------------------------7-------------------------------|
A|-5----------------------------------5---------------------------------|
E|----------------------------------------------------------------------|

(Guitar 3) 
(Overdubbed)
e|-----------------------------------------|
B|-----------------------------------------|
G|-:-:-:-.-------:-:-.---:-:-.---.-----.---|
D|-0-0-0-0-------0-0-0---0-0-0---0---0-0---|  (4x)
A|-0-0-0-0-------0-0-0---0-0-0---0---0-0---|
E|-0-0-0-0-------0-0-0---0-0-0---0---0-0---|

(Both Guitars)
(Time Change to 3/4)
e|---------------------------|
B|---------------------------|
G|-:-:-:-:-:-:-:-:-:-:-:-:---|
D|-0-0-0-0-0-0-0-0-0-0-0-0---|
A|-0-0-0-0-0-0-0-0-0-0-0-0---|
E|-0-0-0-0-0-0-0-0-0-0-0-0---|

(Part 5) 
(1:43)
e|----------------------------------------------------------|
B|----------------------------------------------------------|
G|-:::-::------:----------------------------------:-:-::6---|
D|-000-000-----0----------------------------------0-0-006---|
A|-000-000-----0------------------7-0-8-0-7-8-7-2-0-0-004---|
E|-000-000-----0-0-2-3-2-/5-3-2-0-----------------0-0-00----|

e|------------------------------------------------|
B|------------------------------------------------|
G|--------------------------------------:-:-::----|
D|--------------------------------------0-0-000---|
A|-------------5---5-/8---7---7-/10-8-7-0-0-000---|
E|-----0-2-3-2---2------5---3-----------0-0-000---|

e|--------------------------------------------------|
B|--------------------------------------------------|
G|---:::----------------------------------:-:-::6---|
D|---000----------------------------------0-0-006---|
A|---000------------------7-0-8-0-7-8-7-2-0-0-004---|
E|---000-0-2-3-2-/5-3-2-0-----------------0-0-00----|

e|------------------------------------------|
B|------------------------------------------|
G|------------------------------------------|
D|--------------------------------------0~--|
A|-------------5---5-/8---7---7-/10-8-7-0~--|
E|-----0-2-3-2---2------5---3-----------0~--|

[Part 6] 
(2:01)
e|---------------------------------------------------------------------------------------------------|
B|---------------------------------------------------------------------------------------------------|
G|---------------------------------------------------------------------------------------------------|
D|-7-7-7-7-7-7-5-5-5-5-5-5-5-5-5-5-5-5-5-5-5-5-5-5-5-5-5-5-5-5-8-8-8-8-8-8-7\3-3-3-3-3-3-3-3-3-3-3---|
A|-7-7-7-7-7-7-5-5-5-5-5-5-6-6-6-6-6-6-6-6-6-6-6-6-5-5-5-5-5-5-8-8-8-8-8-8-7\3-3-3-3-3-3-3-3-3-3-3---|
E|-7-7-7-7-7-7-5-5-5-5-5-5-5-5-5-5-5-5-5-5-5-5-5-5-5-5-5-5-5-5-8-8-8-8-8-8-7\3-3-3-3-3-3-3-3-3-3-3---|

e|---------------------------------------------------------------------------|
B|---------------------------------------------------------------------------|
G|---------------------------------------------------------------------------|
D|-7-7-7-7-7-7-5-5-5-5-5-5-5-5-5-5-5-5-5-5-5-5-5-5-5-5-5-5-5-5-8-8-8-8-8-8---|
A|-7-7-7-7-7-7-5-5-5-5-5-5-6-6-6-6-6-6-6-6-6-6-6-6-5-5-5-5-5-5-8-8-8-8-8-8---|
E|-7-7-7-7-7-7-5-5-5-5-5-5-5-5-5-5-5-5-5-5-5-5-5-5-5-5-5-5-5-5-8-8-8-8-8-8---|

[Part 7] 
(2:16)
 Time Change to 4/4. (Don't comment saying I'm wrong.  Even though there are only three
                      notes per beat, the timing is 4/4 and the notes are triplets.)

(Guitar 1)
e|-------------------------------------------------------------------------------|
B|--------------------------------------------------------6-5-6-/10-9-10-/14-\---|
G|-5-6-5-------5-6-5-------5-6-5---5----------------6-5-6------------------------|
D|-------8-7-5-------8-7-5-------8---8-7-8-7-5~----------------------------------|
A|-------------------------------------------------------------------------------|
E|-------------------------------------------------------------------------------|

(Guitar 2)
e|------------------------------------------------------------------------------------|
B|------------------------------------------------------------------------------------|
G|-------------------------------------------------------------7-6-7-/10-9-10-/14-\---|
D|-7-8-7--------7-8-7--------7-8-7----8------------------8-7-8------------------------|
A|-------10-8-7-------10-8-7-------10---10-8-10-8-7~----------------------------------|
E|------------------------------------------------------------------------------------|

[Part 8]
(2:22):
(Both Guitars)
e|----------------------------------------|
B|----------------------------------------|
G|----.---.-------------.-----------------| 
D|-/3-0---0---0-/3-0-/3-0---0-/3-0-/6-\---|  (4x)
A|-/3-0---0---0-/3-0-/3-0---0-/3-0-/6-\---|
E|-/3-0---0---0-/3-0-/3-0---0-/3-0-/6-\---|

[Part 9] 
(2:39)
e|--------------------------------------------------------------------------------------------|
B|--------------------------------------------------------------------------------------------|
G|------------------------------------------------------------------|---Tremelo-Picking---|---|
D|-0~-------4~-------5~-------10~--------0~-------3~-------8~-------|---------------------|---| (x2)  
A|-0~-------4~-------5~--------8~--------0~-------3~-------8~-------5-5-5-4-4-4-7-7-7-8-8-8---|
E|-0~-------4~-------5~--------8~--------0~-------3~-------8~---------------------------------|

[Part 9] 
(3:12)
(Both Guitars)
e|------------------------------------------|
B|------------------------------------------|
G|-:-:-:-.-------:-:-.---:-:-.---.----------| 
D|-0-0-0-0-------0-0-0---0-0-5---3---3-h5---|  (4x)
A|-0-0-0-0-------0-0-0---0-0-5---3---3-h5---|
E|-0-0-0-0-------0-0-0---0-0-5---3---3-h5---|

(Guitar 1)
e|---------------------------------------------------------------------------|
B|---------------------------------------------------------------------------|
G|-14-14-14-14-14-14-14-14-14-14-14-14-15-15-15-15-15-15-18-18-18-18-18-18---|
D|--x--x--x--x--x--x--x--x--x--x--x--x--x--x--x--x--x--x--x--x--x--x--x--x---|
A|-12-12-12-12-12-12-12-12-12-12-12-12-13-13-13-13-13-13-16-16-16-16-16-16---|
E|---------------------------------------------------------------------------|
                                                                                  
e|---------------------------------------------------------------------------|  (2x) 
B|---------------------------------------------------------------------------|
G|-14-14-14-14-14-14-14-14-14-14-14-14-10-10-10-10-10-10-9-9-9-9-9-9---------|
D|--x--x--x--x--x--x--x--x--x--x--x--x--x--x--x--x--x--x-x-x-x-x-x-x---------|
A|-12-12-12-12-12-12-12-12-12-12-12-12--8--8--8--8--8--8-7-7-7-7-7-7---------|
E|---------------------------------------------------------------------------|

(Guitar Two plays the "Both Guitars" part 4x more.)

[Part 7] 
(Revisited) 
(2:16)
(Guitar 1)
e|-------------------------------------------------------------------------------|
B|--------------------------------------------------------6-5-6-/10-9-10-/14-\---|
G|-5-6-5-------5-6-5-------5-6-5---5----------------6-5-6------------------------|
D|-------8-7-5-------8-7-5-------8---8-7-8-7-5~----------------------------------|
A|-------------------------------------------------------------------------------|
E|-------------------------------------------------------------------------------|

(Guitar 2)
e|------------------------------------------------------------------------------------|
B|------------------------------------------------------------------------------------|
G|-------------------------------------------------------------7-6-7-/10-9-10-/14-\---|
D|-7-8-7--------7-8-7--------7-8-7----8------------------8-7-8------------------------|
A|-------10-8-7-------10-8-7-------10---10-8-10-8-7~----------------------------------|
E|------------------------------------------------------------------------------------|

[Part 10] 
(3:52)
(Both Guitars)
e|---------------------------------------------------------------------|
B|---------------------------------------------------------------------|
G|---------------------------------------------------------------------| 
D|-0---0-0-0---/10-8-----8-7-8-7-3-5---5-5-5---/12-11---11-12---14-\---|  (2x)
A|-0---0-0-0---/10-8-----8-7-8-7-3-5---5-5-5---/12-11---11-12---14-\---|
E|-0---0-0-0---/10-8-----8-7-8-7-3-5---5-5-5---/12-11---11-12---14-\---|

e|--------------------------------------------------------------------|
B|--------------------------------------------------------------------|
G|-:-:--:-:-:-:-:-:---------------------------------------------------|
D|-0-8-10-7-8-5-7-3-7-----8---7---5---5-5-5---/12-11---11-12---14-\---|
A|-0-8-10-7-8-5-7-3-7-----8---7---5---5-5-5---/12-11---11-12---14-\---|
E|-0-8-10-7-8-5-7-3-7-----8---7---5---5-5-5---/12-11---11-12---14-\---|

e|---------------------------------------------------------------------|
B|---------------------------------------------------------------------|
G|---------------------------------------------------------------------| 
D|-0---0-0-0---/10-8-----8-7-8-7-3-5---5-5-5---/12-11---11-12---14-\---|  (4x)
A|-0---0-0-0---/10-8-----8-7-8-7-3-5---5-5-5---/12-11---11-12---14-\---|
E|-0---0-0-0---/10-8-----8-7-8-7-3-5---5-5-5---/12-11---11-12---14-\---|

e|--------------------------------------------------------------------|
B|--------------------------------------------------------------------|
G|-:-:--:-:-:-:-:-:---------------------------------------------------|
D|-0-8-10-7-8-5-7-3-7-----8---7---5---5-5-5---/12-11---11-12---14-\---|
A|-0-8-10-7-8-5-7-3-7-----8---7---5---5-5-5---/12-11---11-12---14-\---|
E|-0-8-10-7-8-5-7-3-7-----8---7---5---5-5-5---/12-11---11-12---14-\---|

e|---------------------------------------------------------------------|
B|---------------------------------------------------------------------|
G|---------------------------------------------------------------------|
D|-0---0-0-0---/10-8-----8-7-8-7-3-5---5-5-5---/12-11---11-12---14-\---|
A|-0---0-0-0---/10-8-----8-7-8-7-3-5---5-5-5---/12-11---11-12---14-\---|
E|-0---0-0-0---/10-8-----8-7-8-7-3-5---5-5-5---/12-11---11-12---14-\---|

e|------|
B|------|
G|------|
D|-0~---|
A|-0~---|
E|-0~---|



************************************

| ~  Vibrato
| /  Slide up
| \  Slide down
| h  Hammer-on
| x  Dead note

************************************
Suggest correction
comments
print report bad tab
28 comments total. Showing first comments.
+1 reply
CvPrEpKiLLaH 160 Nov 17, 2003 07:00 PM

wow.. HOLY ***IN ***! nice tab dude.... wow.....

+4 reply
Killemall83 50 Feb 04, 2004 07:00 PM

I PRAISE YOU AS A GOD!!! I wanted to learn this song for ever!

+1 reply
grimreaper65 90 Dec 09, 2004 07:00 PM

jolly good job, man!

guest
You may want to rate the tab now too:
select rating
Wanna post a correction for this tab? Suggest correction