Oops, an error
Loading. Please wait.

Exist Bass Tab

version 1
version 1

Whole song

Interactive

487 views 12 this week
2 commentsread comments
1 2 3 4 5
x 3
add to favorites
launch autoscroll
font size
0
reset
guitar tuner
Autoscroll
slow
fast
+/-
esc
set tempo
stop
Help us to improve Ultimate-Guitar.com Take our survey!
×
Author
Difficulty
Tuning
intermediate
D A D G B E
0:14
G|-----------------------------------------------------------------|
D|-----------------------------------------------------------------|
A|---------6---5-----------6---5---3---1---6---5-------------------|
D|-5---8-----------5---8---------------------------5---3---1---0---|

G|---------------------------------|
D|---------------------------------|
A|-3---1---6---5-------------------|
D|---------------------------------|

1:30 x2
G|-------------------------------------------------------------------|
D|o-----------------------------------------------------------------o|
A|o-----------------------------------------------------------------o|
D|--5-5-5-5-5-5-5-5-5-5-5-5-5-5-5-5-4-4-4-4-4-4-4-4-4-4-4-4-4-4-4-4--|
    1 + 2 + 3 + 4 + 1 + 2 + 3 + 4 + 1 + 2 + 3 + 4 + 1 + 2 + 3 + 4 +

G|-----------------------------------------------------------------|
D|-----------------------------------------------------------------|
A|-----------------------------------------------------------------|
D|-8-8-8-8-8-8-8-8-8-8-8-8-8-8-8-8-7-7-7-7-7-7-7-7-7-7-7-7-7-7-7-7-|
   1 + 2 + 3 + 4 + 1 + 2 + 3 + 4 + 1 + 2 + 3 + 4 + 1 + 2 + 3 + 4 +

G|-----------------------------------------------------------------|
D|-----------------------------------------------------------------|
A|-----------------------------------------------------------------|
D|-8-8-8-8-8-8-8-8-8-8-8-8-8-8-8-8-7---7---7---7---7-7-7-7-7-7-7-7-|
   1 + 2 + 3 + 4 + 1 + 2 + 3 + 4 + 1 + 2 + 3 + 4 + 1 + 2 + 3 + 4 +

G|-----------------------------------------------------------------|
D|-----------------------------------------------------------------|
A|-4-4-4-4-4-4-4-4-3-3-3-3-3-3-3-3-4-4-4-4-4-4-4-4-6-6-6-6-6-6-6-6-|
D|-----------------------------------------------------------------|
   1 + 2 + 3 + 4 + 1 + 2 + 3 + 4 + 1 + 2 + 3 + 4 + 1 + 2 + 3 + 4 +

G|-----------------------------------------------------------------|
D|-------------------------------------------------4---4---4---4---|
A|-7-7-7-7-7-7-7-7-6-6-6-6-6-6-6-6-7-7-7-7-7-7-7-7-----------------|
D|-----------------------------------------------------------------|
   1 + 2 + 3 + 4 + 1 + 2 + 3 + 4 + 1 + 2 + 3 + 4 + 1 + 2 + 3 + 4 +

G|-----------------------------------------------------------------|
D|-5-5-5-5-5-5-5-5-4-4-4-4-4-4-4-4-5-5-5-5-5-5-5-5-4-4-4-4-4-4-4-4-|
A|-----------------------------------------------------------------|
D|-----------------------------------------------------------------|
   1 + 2 + 3 + 4 + 1 + 2 + 3 + 4 + 1 + 2 + 3 + 4 + 1 + 2 + 3 + 4 +

G|-----------------------------------------------------------------|
D|-8-8-8-8-8-8-8-8-------------------------------------------------|
A|-----------------9-9-9-9-9-9-9-9-6-6-6-6-6-6-6-6-3-3-3-3-3-3-3-3-|
D|-----------------------------------------------------------------|
   1 + 2 + 3 + 4 + 1 + 2 + 3 + 4 + 1 + 2 + 3 + 4 + 1 + 2 + 3 + 4 +

G|-----------------------------------------------------------------|
D|-----------------------------------------------------------------|
A|-----------------------------------------------------------------|
D|-7-------4-------1---------------4-------------------------------|
   1 + 2 + 3 + 4 + 1 + 2 + 3 + 4 + 1 2 3 4 1 2 3 4 1 2 3 4 1 2 3 4

2:19
G|-----------------------------------------------------------------|
D|-----------------------------------------------------------------|
A|-----------------------------------------------------------------|
D|-5-r---------------------------------------------8---7---5-5-4---|
   1 + 2 + 3 + 4 + 1 + 2 + 3 + 4 + 1 + 2 + 3 + 4 + 1 + 2 + 3 + 4 +

G|-----------------------------------------------------------------|
D|-----------------------------------------------------------------|
A|-----------------------------------------------------------------|
D|-r-----------------------------------------------8---7---5-5-4---|
   1 + 2 + 3 + 4 + 1 + 2 + 3 + 4 + 1 + 2 + 3 + 4 + 1 + 2 + 3 + 4 +

G|---------------------------------|
D|---------------------------------|
A|---------------------------------|
D|---------------------------------|
   1 + 2 + 3 + 4 + 1 + 2 + 3 + 4 + 

5:31 x4
G|-------------------------------------------------------------------|
D|o-----------------------------------------------------------------o|
A|o-----------------------------------------------------------------o|
D|--5-5-5-5-5-5-5-5-5-5-5-5-5-5-5-5-5-5-5-5-5-5-5-5-8---7---5-5-4----|
    1 + 2 + 3 + 4 + 1 + 2 + 3 + 4 + 1 + 2 + 3 + 4 + 1 + 2 + 3 + 4 +

G|---------------------------------|
D|---------------------------------|
A|---------------------------------|
D|-5-----------\-------------------|
   1 + 2 + 3 + 4 + 1 + 2 + 3 + 4 + 

2:54 x3
G|-------------------------------------------------------------------|
D|o-----------------------------------------------------------------o|
A|o-----------------------------------------------------------------o|
D|--0-0-0-0-0-0-0-0-0-0-0-0-0-0-0-0-0-0-0-0-0-0-0-0-0-0-0-0-0-0-0-0--|
    1 + 2 + 3 + 4 + 1 + 2 + 3 + 4 + 1 + 2 + 3 + 4 + 1 + 2 + 3 + 4 +

G|---------------------------------------------------|
D|o-------------------------------------------------o|
A|o-5-5-5-5-5-5-4-4-4-4-4-4-5-5-5-5-5-5-4-4-4-4-4-4-o|
D|---------------------------------------------------|
    tripl tripl tripl tripl tripl tripl tripl tripl

3:14
G|-----------------------------------------------------------------|
D|-----------------------------------------------------------------|
A|-----------------------------------------------------------------|
D|-0-------------------------------3-------------------------------|
   1 + 2 + 3 + 4 + 1 + 2 + 3 + 4 + 1 + 2 + 3 + 4 + 1 + 2 + 3 + 4 +

G|-----------------------------------------------------------------|
D|-----------------------------------------------------------------|
A|-1-------------------------------0-------------------------------|
D|-----------------------------------------------------------------|
   1 + 2 + 3 + 4 + 1 + 2 + 3 + 4 + 1 + 2 + 3 + 4 + 1 + 2 + 3 + 4 +

G|-----------------------------------------------------------------|
D|-----------------------------------------------------------------|
A|-----------------------------------------------------------------|
D|-0---0-0-0-0-0-0-0-0-0-0-0-0-0-2-3-3-3-3-3-3-3-3-3-3-3-3-5-3-2-3-|
   1 + 2 + 3 + 4 + 1 + 2 + 3 + 4 + 1 + 2 + 3 + 4 + 1 + 2 + 3 + 4 +

G|-----------------------------------------------------------------|
D|-----------------------------------------------------------------|
A|-1-1-1-1-1-1-1-1-1-1-1-1-1-3-1-1-0-0-0-0-0-0-0-0-0-0-0-0-4--4--4-|
D|-----------------------------------------------------------------|
   1 + 2 + 3 + 4 + 1 + 2 + 3 + 4 + 1 + 2 + 3 + 4 + 1 + 2 + 3 + 4 +

3:34 x2
G|---------------------------------------------------------------------------------------|
D|o-----------------------------------------6-------------------------------6-----------o|
A|o-----------------------------------5-7-8-------------------------------------8-7-5---o|
D|--0---0-0-0-0---0-0-0-0---0-0-0-5-8---------0---0-0-0-0---0-0-0-0---0-0-0-----------8--|
    1 + Tripl 3 + Tripl 1 + Tripl Tripl Tripl 1 + Tripl 3 + Tripl 1 + Tripl Tripl Tripl

G|-------------------------------------------------------------------------------------------------|
D|-----------6-----------------------------------------6-------------------------------6-----------|
A|-----5-7-8-------------------------------------5-7-8-------------------------------------8-7-5---|
D|-5-8---------0---0-0-0-0---0-0-0-0---0-0-0-5-8---------0---0-0-0-0---0-0-0-0---0-0-0-----------8-|
   Tripl Tripl 1 + Tripl 3 + Tripl 1 + Tripl Tripl Tripl 1 + Tripl 3 + Tripl 1 + Tripl Tripl Tripl

G|---------------------------------------------------------------------------------------------|
D|-----------------------------------------6-------------------------------6-----------------6-|
A|-----------------------------------5-7-8------------------------------------8--7-----5-7-8---|
D|-0---0-0-0-0---0-0-0-0---0-0-0-5-8---------0---0-0-0-0---0-0-0-0---0-0-0---------5-8---------|
   1 + Tripl 3 + Tripl 1 + Tripl Tripl Tripl 1 + Tripl 3 + Tripl 1 + Tripl Triplet Tripl Tripl 

3:55
G|-------------------------------------------------------------------------------------|
D|-----------------------------------------6-------------------------------6-----------|
A|-----------------------------------5-7-8-------------------------------------8-7-5---|
D|-0---0-0-0-0---0-0-0-0---0-0-0-5-8---------0---0-0-0-0---0-0-0-0---0-0-0-----------8-|
   1 + Tripl 3 + Tripl 1 + Tripl Tripl Tripl 1 + Tripl 3 + Tripl 1 + Tripl Tripl Tripl

G|---------------------------------------------------------------------------------------------|
D|-----------------------------------------6-------------------------------6-----------------6-|
A|-----------------------------------5-7-8------------------------------------8--7-----5-7-8---|
D|-0---0-0-0-0---0-0-0-0---0-0-0-5-8---------0---0-0-0-0---0-0-0-0---0-0-0---------5-8---------|
   1 + Tripl 3 + Tripl 1 + Tripl Tripl Tripl 1 + Tripl 3 + Tripl 1 + Tripl Triplet Tripl Tripl 

G|-------------------------------------------------------------------------------------|
D|-----------------------------------------6-------------------------------6-----------|
A|-----------------------------------5-7-8-------------------------------------8-7-5---|
D|-0---0-0-0-0---0-0-0-0---0-0-0-5-8---------0---0-0-0-0---0-0-0-0---0-0-0-----------8-|
   1 + Tripl 3 + Tripl 1 + Tripl Tripl Tripl 1 + Tripl 3 + Tripl 1 + Tripl Tripl Tripl

G|---------------------------------------------------------------------------------|
D|-----------------------------------------6-------------------------------6-------|
A|-----------------------------------5-7-8------------------------------------8--7-|
D|-0---0-0-0-0---0-0-0-0---0-0-0-5-8---------0---0-0-0-0---0-0-0-0---0-0-0---------|
   1 + Tripl 3 + Tripl 1 + Tripl Tripl Tripl 1 + Tripl 3 + Tripl 1 + Tripl Triplet

G|-------------------------------------|
D|-------------------------------------|
A|-------5-7-8-------5-7-8-------5-7-8-|
D|-5-7-8-------5-7-8-------5-7-8-------|
   Tripl Tripl Tripl Tripl Tripl Tripl


4:19
G|-----------------------------------------------------------------|
D|-----------------------------------------------------------------|
A|---------------------------------4-----4-4---4---4-4-4---4-5-4-4-|
D|-0-----0-0---0---0-0-0-2-3---3-2---------------------------------|
   1 + 2 + 3 + 4 + 1 + 2 + 3 + 4 + 1 + 2 + 3 + 4 + 1 + 2 + 3 + 4 +

G|-----------------------------------------------------------------|
D|-----------------------------------------------------------------|
A|-1-----1-1---1---1-1-1---1---1-1-4-----4-4---4---4---4-4-4-4-4-4-|
D|-----------------------------------------------------------------|
   1 + 2 + 3 + 4 + 1 + 2 + 3 + 4 + 1 + 2 + 3 + 4 + 1 + 2 + 3 + 4 +

4:28
G|-----------------------------------------------------------------|
D|---------------------------------------------------6-----6-7-6---|
A|-5-----5-5---5-5-5-5-5-7-8-7-5-7-4---4-4-4-4-4-4-4---4-4-------4-|
D|-----------------------------------------------------------------|
   1 + 2 + 3 + 4 + 1 + 2 + 3 + 4 + 1 + 2 + 3 + 4 + 1 + 2 + 3 + 4 +

G|-----------------------------------------------------------------|
D|----------------------------------------------/7-7-7-7-7-7-7-7-7-|
A|-1---1-1-1-1-1-1-1-1-1-1-1-3-1-0-4---4-4-4-4-4-------------------|
D|-----------------------------------------------------------------|
   1 + 2 + 3 + 4 + 1 + 2 + 3 + 4 + 1 + 2 + 3 + 4 + 1 + 2 + 3 + 4 +

4:38
G|-----------------------------------------------------------------|
D|-----------------------------------------------------------------|
A|-----------------------------------------------------------------|
D|-0-0-0-0-0-0-0-0-0-0-0-0-0-0-0-0-2-2-2-2-2-2-2-2-2-2-2-2-2-2-2-2-|
   1 + 2 + 3 + 4 + 1 + 2 + 3 + 4 + 1 + 2 + 3 + 4 + 1 + 2 + 3 + 4 +

G|-----------------------------------------------------------------|
D|-----------------------------------------------------------------|
A|-----------------------------------------------------------------|
D|-3-3-3-3-3-3-3-3-3-3-3-3-3-3-3-5-6-6-6-6-6-6-6-6-6-6-6-6-6-6-6-6-|
   1 + 2 + 3 + 4 + 1 + 2 + 3 + 4 + 1 + 2 + 3 + 4 + 1 + 2 + 3 + 4 +

G|-----------------------------------------------------------------|
D|-----------------------------------------------------------------|
A|-0-0-0-0-0-0-0-0-0-0-0-0-0-0-0-0-1-1-1-1-1-1-1-1-1-1-1-1-1-1-1-1-|
D|-----------------------------------------------------------------|
   1 + 2 + 3 + 4 + 1 + 2 + 3 + 4 + 1 + 2 + 3 + 4 + 1 + 2 + 3 + 4 +

G|-----------------------------------------------------------------|
D|-----------------------------------------------------------------|
A|-4-4-4-4-4-4-4-4-4-4-4-4-4-4-4-4-7-7-7-7-7-7-7-7-7-7-7-7-7-7-7-7-|
D|-----------------------------------------------------------------|
   1 + 2 + 3 + 4 + 1 + 2 + 3 + 4 + 1 + 2 + 3 + 4 + 1 + 2 + 3 + 4 +

G|-----------------------------------------------------------------|
D|-----------------6-6-6-6-6-6-6-6-7-7-7-7-7-7-7-7-8-8-8-8-8-8-8-8-|
A|-8-8-8-8-8-8-8-8-------------------------------------------------|
D|-----------------------------------------------------------------|
   1 + 2 + 3 + 4 + 1 + 2 + 3 + 4 + 1 + 2 + 3 + 4 + 1 + 2 + 3 + 4 +

G|---------------------------------------------------------------------------------|
D|-8-8-8-8-8-8-8-8-9-9-9-9-9-9-9-9-10-10-10-10-10-10-10-10-11-11-11-11-11-11-11-11-|
A|---------------------------------------------------------------------------------|
D|---------------------------------------------------------------------------------|
   1 + 2 + 3 + 4 + 1 + 2 + 3 + 4 + 1  +  2  +  3  +  4  +  1  +  2  +  3  +  4  +

G|-------------------------------------------------------------------------|
D|-11-11-11-11-11-11-11-11-11-11-11-11-11-11-11-11-11-11-11-11-11-11-11-11-| Slow Down
A|-------------------------------------------------------------------------| Near End
D|-------------------------------------------------------------------------|


Rest

Pre Chorus 7:50
G|-----------------------------------------------------------------|
D|-----------------------------------------------------------------|
A|---------------------------------2-2-2-2-2-2-2-2-3-3-3-3-3-3-3-3-|
D|-6-6-6-6-6-6-6-6-7-7-7-7-7-7-7-7---------------------------------|
   1 + 2 + 3 + 4 + 1 + 2 + 3 + 4 + 1 + 2 + 3 + 4 + 1 + 2 + 3 + 4 +

Chorus 7:58
G|--------------------------------------------------------------------|
D|--------------------------------------------------------------------|
A|-8-8-8-8-8-8-8-8-8-8-8-8-8-8-8---7----------------7---------------7-|
D|-----------------------------------10-7-7-7-7-7-7---10-7-7-7-7-10---|
   1 + 2 + 3 + 4 + 1 + 2 + 3 + 4 + 1 +  2 + 3 + 4 + 1 +  2 + 3 + 4  +

G|---------------------------------------------------------------------|
D|---------------------------------------------------------------------|
A|-8-8-8----8-8-8-8-8-8-8-8-8-8-8-10-7------------------------8h10-8---|
D|-------10----------------------------10-7-7-7-7-7-7-8---8-8----------|
   1 + 2 +  3 + 4 + 1 + 2 + 3 + 4 +  1 +  2 + 3 + 4 + 1 + 2 + 3 +  4 +

G|-----------------------------------------------------------------|
D|-----------------2---2-2-2-2-2-------------------2---2-2-2-2-5-5-|
A|-3---3-3-3---3-3---------------3-0---0-0-0-0-0-3-----------------|
D|-----------------------------------------------------------------|
   1 + 2 + 3 + 4 + 1 + 2 + 3 + 4 + 1 + 2 + 3 + 4 + 1 + 2 + 3 + 4 +

G|-------------------------------------------------------------------|
D|---------------------------------5-5-5-5-7-7-7-7-9-9-9-9-9-10-9----|
A|-5-5-5-5-7---7-7-8---8-8-5-5-5-5--------------------------------10-|
D|-------------------------------------------------------------------|
   1 + 2 + 3 + 4 + 1 + 2 + 3 + 4 + 1 + 2 + 3 + 4 + 1 + 2 + 3 +  4 +

8:28
G|-----------------------------------------------------------------------|
D|------------------------10---------------------------------------------|
A|-8-8-8----8-8-8-8-8-8-8----8-8-8-10-7----------------7---------------7-|
D|-------10-----------------------------10-7-7-7-7-7-7---10-7-7-7-9-10---|
   1 + 2 +  3 + 4 + 1 + 2 +  3 + 4 +  1 +  2 + 3 + 4 + 1 +  2 + 3 + 4  +

G|------------------------------------------------------------------------|
D|------------------------------------------------------------8-7---10----|
A|-8-8-8----8-8-8-8-8-8-8----8-8-8-10-7---------------------8-----8----10-|
D|-------10---------------10------------10-7-7-7-7-7-7-8-10---------------|
   1 + 2 +  3 + 4 + 1 + 2 +  3 + 4 +  1 +  2 + 3 + 4 + 1 +  2 + 3 + 4  +

G|-----------------------------------------------------------------|
D|-----------------2---2-2-2---2-2-----------------2---2-2-2-2-5-5-|
A|-3---3-3-3---3-3-----------------0---0-0-0-0-0-3-----------------|
D|-----------------------------------------------------------------|
   1 + 2 + 3 + 4 + 1 + 2 + 3 + 4 + 1 + 2 + 3 + 4 + 1 + 2 + 3 + 4 +

G|-------------------------------------------------------------------|
D|---------------------------------5-5-5-5-7-7-7-7-9-9-9-9-9-10-9----|
A|-5---5-5-7-7-7-7-8-8-8-8-5-5-5-5--------------------------------10-|
D|-------------------------------------------------------------------|
   1 + 2 + 3 + 4 + 1 + 2 + 3 + 4 + 1 + 2 + 3 + 4 + 1 + 2 + 3 +  4 +

8:57
G|-----------------------------------|
D|-----8-7---------------------------|
A|---------8---10-8------------------|
D|-8----------------10---------------|
   1 + 2 + 3 + 4  + 1  + 2 + 3 + 4 + 

Verse 9:01
G|-----------------------------------------------------------------|
D|/8---------------7-----------------------------------------7-----|
A|---------------------------------5-------------0-5-----------7-0-|
D|-----------------------------------------------------------------|
   1 + 2 + 3 + 4 + 1 + 2 + 3 + 4 + 1 + 2 + 3 + 4 + 1 + 2 + 3 + 4 +

G|-10--------------9-------------------------7---7-9-----7-10-------|
D|/8---------------7---------------------------7----------------7---|
A|------------------------------------------------------------------|
D|---------------------------------0--------------------------------|
   1 + 2 + 3 + 4 + 1 + 2 + 3 + 4 + 1 + 2 + 3 + 4 + 1 + 2 + 3  + 4 +

G|-10--------------9-----------------------------------------------|
D|-8---------------7---------------5-------------------------------|
A|-------------------------------------------------8-------7-------|
D|-----------------------------------------------------------------|
   1 + 2 + 3 + 4 + 1 + 2 + 3 + 4 + 1 + 2 + 3 + 4 + 1 + 2 + 3 + 4 +

G|---------------------------------|
D|---------------------------------|
A|-5-------------------------------|
D|---------------------------------|
   1 + 2 + 3 + 4 + 1 + 2 + 3 + 4 + 

Pre Chorus
G|-----------------------------------------------------------------|
D|-----------------------------------------------------------------|
A|---------------------------------2-2-2-2-2-2-2-2-3-3-3-3-3-3-3-3-|
D|-6---6-6-6-6-6-6-7-7-7-7-7-7-7-7---------------------------------|
   1 + 2 + 3 + 4 + 1 + 2 + 3 + 4 + 1 + 2 + 3 + 4 + 1 + 2 + 3 + 4 +

Chorus 9:34
G|-----------------------------------------------------------------------|
D|-----------------------------------------------------------------------|
A|-8-8-8----8-8-8-8-8-8-8-8-8-8-8-10-7----------------7-------------7-10-|
D|-------10----------------------------10-7-7-7---7-7---10-7-7-7-10------|
   1 + 2 +  3 + 4 + 1 + 2 + 3 + 4 +  1 +  2 + 3 + 4 + 1 +  2 + 3 +  4 +

G|-----------------------------------------------------------------------|
D|-----------------------------------------------------------8-7---10----|
A|-8-8-8----8-8-8-8-8-8-8-8-8h10-8-7-7---------------------8-----8----10-|
D|-------10----------------------------10-7-7-7-7-7-7-8-10---------------|
   1 + 2 +  3 + 4 + 1 + 2 + 3 +  4 + 1 +  2 + 3 + 4 + 1 +  2 + 3 + 4  +

G|-----------------------------------------------------------------|
D|-----------------2---2-2-2h5-2-------------------2---2-2-2-5-2-2-|
A|-3---3-3-3---3-3---------------3-0---0-0-0-0-0-3-----------------|
D|-----------------------------------------------------------------|
   1 + 2 + 3 + 4 + 1 + 2 + 3 + 4 + 1 + 2 + 3 + 4 + 1 + 2 + 3 + 4 +

G|-------------------------------------------------------------------|
D|---------------------------------5-5-5-5-7-7-7-7-9-9-9-9-9-10-9----|
A|-5---5-5-7-7-7-7-8-8-8-8-5-5-5-5--------------------------------10-|
D|-------------------------------------------------------------------|
   1 + 2 + 3 + 4 + 1 + 2 + 3 + 4 + 1 + 2 + 3 + 4 + 1 + 2 + 3 +  4 +

10:03
G|---------------------------------------------------------------------|
D|---------------------------------------------------/9---7-7/10---9---|
A|-8-8-8----8-----8-8-8-8-8----8-8-7-7--------------7------------------|
D|-------10-----------------10---------10-7-7---7-7--------------------|
   1 + 2 +  3 + 4 + 1 + 2 + 3  + 4 + 1 +  2 + 3 + 4 + 1 + 2 + 3 + 4  +

G|------------------------------------------------------------------------|
D|-----------------------------------------------------------8-7---10----|
A|-8-8-8----8---8-8---8-8-8-8h10-8-7-7---------------------8-----8----10-|
D|-------10----------------------------10-7-7---7-7-7-8-10---------------|
   1 + 2 +  3 + 4 + 1 + 2 + 3 +  4 + 1 +  2 + 3 + 4 + 1 +  2 + 3 + 4  +

G|-----------------------------------------------------------------|
D|-----------------2---2-2-2---2-------------------2---2-2-2-2-5-5-|
A|-3---3-3-3---3-3---------------3-0---0-0-0-0-0-3-----------------|
D|-----------------------------------------------------------------|
   1 + 2 + 3 + 4 + 1 + 2 + 3 + 4 + 1 + 2 + 3 + 4 + 1 + 2 + 3 + 4 +

G|---------------------------------------------------------------------|
D|---------------------------------5-5-5-5-7-7-7-7-9-9-9-9-10-10-12-12-|
A|-5---5-5-7-7-7-7-8-8-8-8-5-5-5-5-------------------------------------|
D|---------------------------------------------------------------------|
   1 + 2 + 3 + 4 + 1 + 2 + 3 + 4 + 1 + 2 + 3 + 4 + 1 + 2 + 3  +  4  +

10:33
G|--------------------------------------------------------------------|
D|-10--------------10------10-----7\----------------------------------|
A|----------------------10------8-----1-----0---------3---------------|
D|------------------------------------------------3-------------------|
   1 + 2 + 3 + 4 + 1  + 2  +  3 + 4 + 1 + 2 + 3 + 4 + 1 + 2 + 3 + 4 +

G|-----------------------------------------------------------------|
D|---------------------------------------------------2-2---2-3-2---|
A|-1-1-1-0-0-0---------------------3-----3-----3-----------------3-|
D|-------------5-5-5-3-3-3-2-2-3-3---------------------------------|
   1 + 2 + 3 + 4 + 1 + 2 + 3 + 4 + 1 + 2 + 3 + 4 + 1 + 2 + 3 + 4 +

G|-----------------------------------------------------------------|
D|---------------------------------------------------------5-5-5-5-|
A|-1-1-1-0-0-0---------------------3-3-3-5-5-5-7-7-7-8-8-8---------|
D|-------------5-5-5-3-3-3-2-2-3-3---------------------------------|
   1 + 2 + 3 + 4 + 1 + 2 + 3 + 4 + 1 + 2 + 3 + 4 + 1 + 2 + 3 + 4 +


10:54
G|-----------------------------------------------------------------|
D|-----------------------------------------------------------------|
A|-5-5-5-5-5---5-5-5-5-5---5-5-5-5---------------------------------|
D|---------------------------------5-5-5-5-5---5-5-5-5-5-5-5-5-5-5-|
   1 + 2 + 3 + 4 + 1 + 2 + 3 + 4 + 1 + 2 + 3 + 4 + 1 + 2 + 3 + 4 +

G|-----------------------------------------------------------------|
D|-----------------------------------------------------------------|
A|-3-3---3---3-3-3-3-3-3-3-3-3-3-3-0-0---0---0-0-0-0-0-0-0-0-0-0-0-|
D|-----------------------------------------------------------------|
   1 + 2 + 3 + 4 + 1 + 2 + 3 + 4 + 1 + 2 + 3 + 4 + 1 + 2 + 3 + 4 +

G|-----------------------------------------------------------------|
D|-----------------------------------------------------------------|
A|-5-5---5-5---5-5---5-5---5-5-5-5---------------------------------|
D|---------------------------------5-5-5-5-5-5-5-5-5-5-5-5-5-5-5-5-|
   1 + 2 + 3 + 4 + 1 + 2 + 3 + 4 + 1 + 2 + 3 + 4 + 1 + 2 + 3 + 4 +

G|-----------------------------------------------------------------|
D|-----------------------------------------7-----------7-----7-----|
A|-3-3---3---3-3-3-3-3-3-3-3-3-3-3-0-0-0-7---7-0-0-0-7---7-0---7-0-|
D|-----------------------------------------------------------------|
   1 + 2 + 3 + 4 + 1 + 2 + 3 + 4 + 1 + 2 + 3 + 4 + 1 + 2 + 3 + 4 +

11:20
G|-----------------------------------------------------------------|
D|-----------------------------------------------------------------|
A|-5-5-5-5-5-5-5-5-5-5-5-5-5-5-5-5---------------------------------|
D|---------------------------------5-5-5-5-5-5-5-5-5-5-5-5-5-5-5-5-|
   1 + 2 + 3 + 4 + 1 + 2 + 3 + 4 + 1 + 2 + 3 + 4 + 1 + 2 + 3 + 4 +

G|-----------------------------------------------------------------|
D|-----------------------------------------------------------------|
A|-3-3-3-3-3-3-3-3-3-3-3-3-3-3-3-3-0-0-0-0-0-0-0-0-0-0-0-0-0-0-0-0-|
D|-----------------------------------------------------------------|
   1 + 2 + 3 + 4 + 1 + 2 + 3 + 4 + 1 + 2 + 3 + 4 + 1 + 2 + 3 + 4 +

G|-----------------------------------------------------------------|
D|-----------------------------------------------------------------|
A|-5-5-5-5-5-5-5-5-5-5-5-5-5-5-5-5---------------------------------|
D|---------------------------------5-5-5-5-5-5-5-5-5-5-5-5-5-5-5-5-|
   1 + 2 + 3 + 4 + 1 + 2 + 3 + 4 + 1 + 2 + 3 + 4 + 1 + 2 + 3 + 4 +

G|-----------------------------------------------------------------|
D|---------------------------------------------------------7-7-7-7-|
A|-3-3-3-3-3-3-3-3-3-3-3-3-3-3-3-3-0-0-0-0-0-0-0-0-0-0-0-7---------|
D|-----------------------------------------------------------------|
   1 + 2 + 3 + 4 + 1 + 2 + 3 + 4 + 1 + 2 + 3 + 4 + 1 + 2 + 3 + 4 +

11:45
G|-----------------------------------------------------------------|
D|-----------------------------------------------------------------|
A|-5-5-5-5-5-5-5-5-5-5-5-5-5-5-5-5---------------------------------|
D|---------------------------------5-5-5-5-5-5-5-5-5-5-5-5-5-5-5-5-|
   1 + 2 + 3 + 4 + 1 + 2 + 3 + 4 + 1 + 2 + 3 + 4 + 1 + 2 + 3 + 4 +

G|-----------------------------------------------------------------|
D|-----------------------------------------------------------------|
A|-3-3-3-3-3-3-3-3-3-3-3-3-3-3-3-3-0-0-0-0-0-0-0-0-0-0-0-0-0-0-0-0-|
D|-----------------------------------------------------------------|
   1 + 2 + 3 + 4 + 1 + 2 + 3 + 4 + 1 + 2 + 3 + 4 + 1 + 2 + 3 + 4 +

G|-----------------------------------------------------------------|
D|-----------------------------------------------------------------|
A|-5-5-5-5-5-5-5-5-5-5-5-5-5-5-5-5---------------------------------|
D|---------------------------------5-5-5-5-5-5-5-5-5-5-5-5-7-5-4-5-|
   1 + 2 + 3 + 4 + 1 + 2 + 3 + 4 + 1 + 2 + 3 + 4 + 1 + 2 + 3 + 4 +

G|-----------------------------------------------------------------|
D|-----------------------------------------------------------------|
A|-3-3-3-3-3-3-3-3-3-3-3-3-5-5-3-5-0-0-0-0-0---0-0-0---0---0-2-2-3-|
D|-----------------------------------------------------------------|
   1 + 2 + 3 + 4 + 1 + 2 + 3 + 4 + 1 + 2 + 3 + 4 + 1 + 2 + 3 + 4 +

12:07
G|-----------------------------------------------------------------|
D|-----------------------------------------------------------------|
A|-5-5-5-5-5-5-5-5-5-5-5-7-8-7-5-7-------------------------------2-|
D|---------------------------------5-5-5-5-5-5-5-5-5-5-5-5-5-5-5---|
   1 + 2 + 3 + 4 + 1 + 2 + 3 + 4 + 1 + 2 + 3 + 4 + 1 + 2 + 3 + 4 +

G|-----------------------------------------------------------------|
D|-----------------------------------------------------------------|
A|-3-3-3-3-3-3-3-3-3-3-3-3-3-3-3-2-0-0-0-0-0-0-0-0/7-7---7-7-7-7-7-|
D|-----------------------------------------------------------------|
   1 + 2 + 3 + 4 + 1 + 2 + 3 + 4 + 1 + 2 + 3 + 4 + 1 + 2 + 3 + 4 +

G|-----------------------------------------------------------------|
D|---------------------------------5-5-5-5-5-5-5-5-5-5-5-5-5-7-5-7-|
A|-5-5-5-5-5-5-5-5-5-5-5-5-5-5-7-8---------------------------------|
D|-----------------------------------------------------------------|
   1 + 2 + 3 + 4 + 1 + 2 + 3 + 4 + 1 + 2 + 3 + 4 + 1 + 2 + 3 + 4 +

G|---------------------------------------------------------------------------------|
D|-10-10-10-10-10-10-10-10-10-10-10-10-10-10-10-10-7-7-7-7-7-7-7-7-7-7-7-7-7-7-5-5-|
A|---------------------------------------------------------------------------------|
D|---------------------------------------------------------------------------------|
   1  +  2  +  3  +  4  +  1  +  2  +  3  +  4  +  1 + 2 + 3 + 4 + 1 + 2 + 3 + 4 +

12:30
G|-----------------------------------------------------------------|
D|-----------------------------------------------------------------|
A|-5-5-5-5-5-5-5-5-5-5-5-5-5-5-5-----------------------------------|
D|-------------------------------7-5-5-5-5-5-5-5-5-5-5-3-3-5-5-3-5-|
   1 + 2 + 3 + 4 + 1 + 2 + 3 + 4 + 1 + 2 + 3 + 4 + 1 + 2 + 3 + 4 +

G|-----------------------------------------------------------------|
D|-------------------------2-3-2-----------------------------------|
A|-3-3-3-3-3-3-3-3-3-3-3-3-------3-0-0-0---0-0--0-0--7-7---7-7-7-7-|
D|-----------------------------------------------------------------|
   1 + 2 + 3 + 4 + 1 + 2 + 3 + 4 + 1 + 2 + 3 + 4 + 1 + 2 + 3 + 4 +

G|-----------------------------------------------------------------|
D|-----------------------------------------------------------------|
A|-5-5-5-5-5-5-5-5-5-5-5-5-5-5-7-8---------------------------------|
D|---------------------------------5-5-5-5-5-5-5-5-5-5-7-5-7-7-7-5-|
   1 + 2 + 3 + 4 + 1 + 2 + 3 + 4 + 1 + 2 + 3 + 4 + 1 + 2 + 3 + 4 +

G|-----------------------------------------------------------------|
D|-------------------------2-2-2-3-----------------7-7-5-5---------|
A|-3-3-3-3-3-3-3-3-3-3-3-3---------0-0-0-0-0-0-0-0---------8-8-7-7-|
D|-----------------------------------------------------------------|
   1 + 2 + 3 + 4 + 1 + 2 + 3 + 4 + 1 + 2 + 3 + 4 + 1 + 2 + 3 + 4 +

12:52
G|-----------------------------------------------------------------|
D|---------------------------------3/5-5-5-5-5-5-5-5-5-5-5-5-5-5-2-|
A|-5-5-5-5-5-5-5-5-5-5-5-5-8-7-5-7---------------------------------|
D|-----------------------------------------------------------------|
   1 + 2 + 3 + 4 + 1 + 2 + 3 + 4 + 1 + 2 + 3 + 4 + 1 + 2 + 3 + 4 +

G|-------------------------------------------------------------------|
D|-------------------------------2/7-7-7-7-7-7-7-7-7-7-7-9-10-9-10-9-|
A|-3-3-3-3-3-3-3-3-3-3-3-3-3-3-3-------------------------------------|
D|-------------------------------------------------------------------|
   1 + 2 + 3 + 4 + 1 + 2 + 3 + 4 + 1 + 2 + 3 + 4 + 1 + 2 + 3  + 4  +

13:04
G|-----------------------------------------------------------------|
D|-----------------------------------------------------------------|
A|-----------------------------------------------------------------|
D|-0---0---0---0---0---0---0-0-0-0-5-5-5-5-5-5-5-5-5-5-5-5-5-4-2-4-|
   1 + 2 + 3 + 4 + 1 + 2 + 3 + 4 + 1 + 2 + 3 + 4 + 1 + 2 + 3 + 4 +

G|-----------------------------------------------------------------|
D|-----------------------------------------------------------------|
A|-3-3-3-3-3-3-3-3-3-3-3-3-3-3-3-3-0-0-0-0-0-0-0-0-0-0-0-0-0-0-0-0-|
D|-----------------------------------------------------------------|
   1 + 2 + 3 + 4 + 1 + 2 + 3 + 4 + 1 + 2 + 3 + 4 + 1 + 2 + 3 + 4 +

G|-----------------------------------------------------------------|
D|-----------------------------------------------------------------|
A|-5-5-5-5-5-5-5-5-5-5-5-5-5-5-5-5---------------------------------|
D|---------------------------------5-5-5-5-5-5-5-5-5-5-5-5-5-5-5-5-|
   1 + 2 + 3 + 4 + 1 + 2 + 3 + 4 + 1 + 2 + 3 + 4 + 1 + 2 + 3 + 4 +

G|-----------------------------------------------------------------|
D|-------------------------------------------------------------5-5-|
A|-3-3-3-3-3-3-3-3-3-3-3-3-3-3-3-3-0-0-0-0-0-0-0-0-0-0-0-0-7-7-----|
D|-----------------------------------------------------------------|
   1 + 2 + 3 + 4 + 1 + 2 + 3 + 4 + 1 + 2 + 3 + 4 + 1 + 2 + 3 + 4 +

13:26
G|-----------------------------------------------------------------|
D|-----------------------------------------------------------------|
A|-5-5-5-5-5-5-5-5-5-5-5-5-8-7-5-7---------------------0-0-2-2-5-5-|
D|---------------------------------5-5-5-5-5-5-5-5-5-5-------------|
   1 + 2 + 3 + 4 + 1 + 2 + 3 + 4 + 1 + 2 + 3 + 4 + 1 + 2 + 3 + 4 +

G|-----------------------------------------------------------------|
D|-------------------------2---3-2---------------------------------|
A|-3-3-3-3-3-3-3-3-3-3-3-3---3-----0-----0-0--0--0-0--0--0-------/-|
D|-----------------------------------------------------------------|
   1 + 2 + 3 + 4 + 1 + 2 + 3 + 4 + 1 + 2 + 3 + 4 + 1 + 2 + 3 + 4 +

13:38
G|-----------------------------------------------------------------|
D|-----------------------------------------------------------------|
A|-5-5-5-5-5-5-5-5-5-5-5-5-5-5-5-5---------------------------------|
D|---------------------------------5-5-5-5-5-5-5-5-5-5-5-5-5-5-5-5-|
   1 + 2 + 3 + 4 + 1 + 2 + 3 + 4 + 1 + 2 + 3 + 4 + 1 + 2 + 3 + 4 +

G|-----------------------------------------------------------------|
D|-----------------------------------------------------------------|
A|-3-3-3-3-3-3-3-3-3-3-3-3-3-3-3-3-0-0-0-0-0-0-0-0-0-0-0-0-0-0-0-0-|
D|-----------------------------------------------------------------|
   1 + 2 + 3 + 4 + 1 + 2 + 3 + 4 + 1 + 2 + 3 + 4 + 1 + 2 + 3 + 4 +

G|-----------------------------------------------------------------|
D|-----------------------------------------------------------------|
A|-5-5-5-5-5-5-5-5-5-5-5-5-5-5-5-5---------------------------------|
D|---------------------------------5-5-5-5-5-5-5-5-5-5-5-5-5-5-5-5-|
   1 + 2 + 3 + 4 + 1 + 2 + 3 + 4 + 1 + 2 + 3 + 4 + 1 + 2 + 3 + 4 +

G|-----------------------------------------------------------------|
D|-----------------------------------------------------------------|
A|-3-3-3-3-3-3-3-3-3-3-3-3-3-3-3-3-0-0-0-0-0-0-0-------------------|
D|-----------------------------------------------------------------|
   1 + 2 + 3 + 4 + 1 + 2 + 3 + 4 + 1 + 2 + 3 + 4 + 1 + 2 + 3 + 4 +

14:00
G|-----------------------------------------------------------------|
D|---------------------------------5-5-5-5-5-5-5-5-5-5-5-5---------|
A|-5-5-5-5-5-5-5-5-5-5-5-5-5-7-5-7-------------------------8-8-7-8-|
D|-----------------------------------------------------------------|
   1 + 2 + 3 + 4 + 1 + 2 + 3 + 4 + 1 + 2 + 3 + 4 + 1 + 2 + 3 + 4 +

G|----------------------------------------------------------------9---10---9--------|
D|-10-10-10-10-10-10-10-10-10-10-10-10-12-10-10-9-7-7---7-7-7-7-7---7----------10---|
A|----------------------------------------------------------------------------------|
D|----------------------------------------------------------------------------------|
   1  +  2  +  3  +  4  +  1  +  2  +  3  +  4  + 1 + 2 + 3 + 4 + 1 + 2  + 3 + 4  +

G|-----------------------------------------------------------------|
D|-----------------------------------------------------------------|
A|-5-5-5-5-5-5-5-5-5-5-5-5-7-5-7-5-------------------------0-0-2-2-|
D|---------------------------------5-5-5-5-5-5-5-5-5-5-4-5---------|
   1 + 2 + 3 + 4 + 1 + 2 + 3 + 4 + 1 + 2 + 3 + 4 + 1 + 2 + 3 + 4 +

G|-----------------------------------------------------------------|
D|-----------------------------2-3---------------------------------|
A|-3-3-3-3-3-3-3-3-3-3-5-5-3-3-----0-0-0-0-0-0-0-0-0-0-0-0-2-2-3-3-|
D|-----------------------------------------------------------------|
   1 + 2 + 3 + 4 + 1 + 2 + 3 + 4 + 1 + 2 + 3 + 4 + 1 + 2 + 3 + 4 +

14:22
G|-----------------------------------------------------------------|
D|-----------------------------------------------------------------|
A|-5---55555---55555---55555-5-5-5---------------------------------|
D|---------------------------------5---55555---55555---55555-5-5-5-|
   1 + 2 + 3 + 4 + 1 + 2 + 3 + 4 + 1 + 2 + 3 + 4 + 1 + 2 + 3 + 4 +

G|-----------------------------------------------------------------|
D|-----------------------------------------------------------------|
A|-3---33333---33333---33333-3-3-3-0---00000---00000---00000-0-0-0-|
D|-----------------------------------------------------------------|
   1 + 2 + 3 + 4 + 1 + 2 + 3 + 4 + 1 + 2 + 3 + 4 + 1 + 2 + 3 + 4 +

G|-----------------------------------------------------------------|
D|---------------------------------5---55555---55555---55555-7-5---|
A|-5---55555---55555---55555-5-5-5---------------------------------|
D|-----------------------------------------------------------------|
   1 + 2 + 3 + 4 + 1 + 2 + 3 + 4 + 1 + 2 + 3 + 4 + 1 + 2 + 3 + 4 +

G|-----------------------------------------------------------------|
D|-------------------------------------------------7---777777777-7-|
A|-3---33333---33333---33333---3---0---00000---0000----------------|
D|-----------------------------------------------------------------|
   1 + 2 + 3 + 4 + 1 + 2 + 3 + 4 + 1 + 2 + 3 + 4 + 1 + 2 + 3 + 4 +

14:45
G|-----------------------------------------------------------------|
D|-------------------------------------------------5---5555--------|
A|-5---55555---55555---55557---8--7--------5---5555--------5---5555|
D|---------------------------------5---5555------------------------|
   1 + 2 + 3 + 4 + 1 + 2 + 3 + 4 + 1 + 2 + 3 + 4 + 1 + 2 + 3 + 4 +

G|-----------------------------------------------------------------|
D|---------5---5555------------------------------------------------|
A|-3---3333--------3---33332---22220---00000---00007-7-7-7-7-7-7-7-|
D|-----------------------------------------------------------------|
   1 + 2 + 3 + 4 + 1 + 2 + 3 + 4 + 1 + 2 + 3 + 4 + 1 + 2 + 3 + 4 +

G|-----------------------------------------------------------------|
D|-----------------------------------------------------------------|
A|-5---------------------------------------------------------------|
D|---------------------------------5-------------------------------|
   1 + 2 + 3 + 4 + 1 + 2 + 3 + 4 + 1 + 2 + 3 + 4 + 1 + 2 + 3 + 4 +

G|-----------------------------------------------------------------|
D|-----------------------------------------------------------------|
A|-3---------------------------------------------------------------|
D|-----------------------------------------------------------------|
   1 + 2 + 3 + 4 + 1 + 2 + 3 + 4 + 1 + 2 + 3 + 4 + 1 + 2 + 3 + 4 +
Tabbed by Dave Vucko
Suggest correction
Give kudos to tab author, rate the tab!
1 2 3 4 5
comments
print report bad tab
2 comments total.
0 reply
FatLeeGates 644 Nov 15, 2016 07:55 PM

can i put some of this tab into my guitar pro? i'll put your credit for sure :)

0 reply
Teh D Bot 11,971 Nov 15, 2016 08:11 PM

Go ahead, I might be changing certain parts as I come across errors, but I'm fine with you doing that.

guest
You may want to rate the tab now too:
select rating
Wanna post a correction for this tab? Suggest correction